  0
SECTION
  2
HEADER
  9
$ACADVER
  1
AC1021
  9
$ACADMAINTVER
 70
    50
  9
$DWGCODEPAGE
  3
ANSI_1252
  9
$LASTSAVEDBY
  1
DBrewer
  9
$INSBASE
 10
0.0
 20
0.0
 30
0.0
  9
$EXTMIN
 10
-0.5001906242675283
 20
-0.5001448567435994
 30
-0.0000000000112498
  9
$EXTMAX
 10
11.50062568078292
 20
9.000144989465169
 30
0.0000000000002956
  9
$LIMMIN
 10
0.0
 20
0.0
  9
$LIMMAX
 10
12.0
 20
9.0
  9
$ORTHOMODE
 70
     0
  9
$REGENMODE
 70
     1
  9
$FILLMODE
 70
     1
  9
$QTEXTMODE
 70
     0
  9
$MIRRTEXT
 70
     1
  9
$LTSCALE
 40
0.25
  9
$ATTMODE
 70
     1
  9
$TEXTSIZE
 40
0.07
  9
$TRACEWID
 40
0.05
  9
$TEXTSTYLE
  7
ARIAL2
  9
$CLAYER
  8
PAPER
  9
$CELTYPE
  6
BYLAYER
  9
$CECOLOR
 62
   256
  9
$CELTSCALE
 40
1.0
  9
$DISPSILH
 70
     0
  9
$DIMSCALE
 40
1.0
  9
$DIMASZ
 40
0.07
  9
$DIMEXO
 40
0.09
  9
$DIMDLI
 40
0.38
  9
$DIMRND
 40
0.0
  9
$DIMDLE
 40
0.0
  9
$DIMEXE
 40
0.06
  9
$DIMTP
 40
0.0
  9
$DIMTM
 40
0.0
  9
$DIMTXT
 40
0.07
  9
$DIMCEN
 40
0.09
  9
$DIMTSZ
 40
0.0
  9
$DIMTOL
 70
     0
  9
$DIMLIM
 70
     0
  9
$DIMTIH
 70
     0
  9
$DIMTOH
 70
     1
  9
$DIMSE1
 70
     1
  9
$DIMSE2
 70
     0
  9
$DIMTAD
 70
     0
  9
$DIMZIN
 70
     0
  9
$DIMBLK
  1

  9
$DIMASO
 70
     1
  9
$DIMSHO
 70
     0
  9
$DIMPOST
  1

  9
$DIMAPOST
  1

  9
$DIMALT
 70
     0
  9
$DIMALTD
 70
     2
  9
$DIMALTF
 40
25.4
  9
$DIMLFAC
 40
1.0
  9
$DIMTOFL
 70
     0
  9
$DIMTVP
 40
0.0
  9
$DIMTIX
 70
     1
  9
$DIMSOXD
 70
     0
  9
$DIMSAH
 70
     0
  9
$DIMBLK1
  1

  9
$DIMBLK2
  1

  9
$DIMSTYLE
  2
STANDARD
  9
$DIMCLRD
 70
     0
  9
$DIMCLRE
 70
     0
  9
$DIMCLRT
 70
     0
  9
$DIMTFAC
 40
1.0
  9
$DIMGAP
 40
0.09
  9
$DIMJUST
 70
     0
  9
$DIMSD1
 70
     0
  9
$DIMSD2
 70
     0
  9
$DIMTOLJ
 70
     1
  9
$DIMTZIN
 70
     0
  9
$DIMALTZ
 70
     0
  9
$DIMALTTZ
 70
     0
  9
$DIMUPT
 70
     0
  9
$DIMDEC
 70
     4
  9
$DIMTDEC
 70
     4
  9
$DIMALTU
 70
     2
  9
$DIMALTTD
 70
     2
  9
$DIMTXSTY
  7
ARIAL1
  9
$DIMAUNIT
 70
     0
  9
$DIMADEC
 70
     0
  9
$DIMALTRND
 40
0.0
  9
$DIMAZIN
 70
     0
  9
$DIMDSEP
 70
    46
  9
$DIMATFIT
 70
     3
  9
$DIMFRAC
 70
     0
  9
$DIMLDRBLK
  1

  9
$DIMLUNIT
 70
     2
  9
$DIMLWD
 70
    -2
  9
$DIMLWE
 70
    -2
  9
$DIMTMOVE
 70
     2
  9
$DIMFXL
 40
1.0
  9
$DIMFXLON
 70
     0
  9
$DIMJOGANG
 40
0.7853981633974483
  9
$DIMTFILL
 70
     0
  9
$DIMTFILLCLR
 70
     0
  9
$DIMARCSYM
 70
     0
  9
$DIMLTYPE
  6

  9
$DIMLTEX1
  6

  9
$DIMLTEX2
  6

  9
$LUNITS
 70
     2
  9
$LUPREC
 70
     4
  9
$SKETCHINC
 40
0.1
  9
$FILLETRAD
 40
0.0277878858050222
  9
$AUNITS
 70
     0
  9
$AUPREC
 70
     0
  9
$MENU
  1
ACAD
  9
$ELEVATION
 40
0.0
  9
$PELEVATION
 40
0.0
  9
$THICKNESS
 40
0.0
  9
$LIMCHECK
 70
     0
  9
$CHAMFERA
 40
0.0
  9
$CHAMFERB
 40
0.0
  9
$CHAMFERC
 40
0.0
  9
$CHAMFERD
 40
0.0
  9
$SKPOLY
 70
     0
  9
$TDCREATE
 40
2449766.689910070
  9
$TDUCREATE
 40
2449766.856576736
  9
$TDUPDATE
 40
2455709.555851782
  9
$TDUUPDATE
 40
2455709.722518449
  9
$TDINDWG
 40
0.0439877546
  9
$TDUSRTIMER
 40
0.0439877546
  9
$USRTIMER
 70
     1
  9
$ANGBASE
 50
0.0
  9
$ANGDIR
 70
     0
  9
$PDMODE
 70
     0
  9
$PDSIZE
 40
0.0
  9
$PLINEWID
 40
0.0
  9
$SPLFRAME
 70
     0
  9
$SPLINETYPE
 70
     6
  9
$SPLINESEGS
 70
     8
  9
$HANDSEED
  5
72A
  9
$SURFTAB1
 70
     6
  9
$SURFTAB2
 70
     6
  9
$SURFTYPE
 70
     6
  9
$SURFU
 70
     6
  9
$SURFV
 70
     6
  9
$UCSBASE
  2

  9
$UCSNAME
  2

  9
$UCSORG
 10
0.0
 20
0.0
 30
0.0
  9
$UCSXDIR
 10
1.0
 20
0.0
 30
0.0
  9
$UCSYDIR
 10
0.0
 20
1.0
 30
0.0
  9
$UCSORTHOREF
  2

  9
$UCSORTHOVIEW
 70
     0
  9
$UCSORGTOP
 10
0.0
 20
0.0
 30
0.0
  9
$UCSORGBOTTOM
 10
0.0
 20
0.0
 30
0.0
  9
$UCSORGLEFT
 10
0.0
 20
0.0
 30
0.0
  9
$UCSORGRIGHT
 10
0.0
 20
0.0
 30
0.0
  9
$UCSORGFRONT
 10
0.0
 20
0.0
 30
0.0
  9
$UCSORGBACK
 10
0.0
 20
0.0
 30
0.0
  9
$PUCSBASE
  2

  9
$PUCSNAME
  2

  9
$PUCSORG
 10
0.0
 20
0.0
 30
0.0
  9
$PUCSXDIR
 10
1.0
 20
0.0
 30
0.0
  9
$PUCSYDIR
 10
0.0
 20
1.0
 30
0.0
  9
$PUCSORTHOREF
  2

  9
$PUCSORTHOVIEW
 70
     0
  9
$PUCSORGTOP
 10
0.0
 20
0.0
 30
0.0
  9
$PUCSORGBOTTOM
 10
0.0
 20
0.0
 30
0.0
  9
$PUCSORGLEFT
 10
0.0
 20
0.0
 30
0.0
  9
$PUCSORGRIGHT
 10
0.0
 20
0.0
 30
0.0
  9
$PUCSORGFRONT
 10
0.0
 20
0.0
 30
0.0
  9
$PUCSORGBACK
 10
0.0
 20
0.0
 30
0.0
  9
$USERI1
 70
     0
  9
$USERI2
 70
     0
  9
$USERI3
 70
     0
  9
$USERI4
 70
     0
  9
$USERI5
 70
     0
  9
$USERR1
 40
0.0
  9
$USERR2
 40
0.0
  9
$USERR3
 40
0.0
  9
$USERR4
 40
0.0
  9
$USERR5
 40
0.0
  9
$WORLDVIEW
 70
     1
  9
$SHADEDGE
 70
     3
  9
$SHADEDIF
 70
    70
  9
$TILEMODE
 70
     1
  9
$MAXACTVP
 70
    16
  9
$PINSBASE
 10
0.0
 20
0.0
 30
0.0
  9
$PLIMCHECK
 70
     0
  9
$PEXTMIN
 10
1.000000000000000E+20
 20
1.000000000000000E+20
 30
1.000000000000000E+20
  9
$PEXTMAX
 10
-1.000000000000000E+20
 20
-1.000000000000000E+20
 30
-1.000000000000000E+20
  9
$PLIMMIN
 10
0.0
 20
0.0
  9
$PLIMMAX
 10
12.0
 20
9.0
  9
$UNITMODE
 70
     0
  9
$VISRETAIN
 70
     0
  9
$PLINEGEN
 70
     0
  9
$PSLTSCALE
 70
     0
  9
$TREEDEPTH
 70
  3020
  9
$CMLSTYLE
  2
STANDARD
  9
$CMLJUST
 70
     0
  9
$CMLSCALE
 40
1.0
  9
$PROXYGRAPHICS
 70
     1
  9
$MEASUREMENT
 70
     0
  9
$CELWEIGHT
370
    -1
  9
$ENDCAPS
280
     0
  9
$JOINSTYLE
280
     0
  9
$LWDISPLAY
290
     0
  9
$INSUNITS
 70
     0
  9
$HYPERLINKBASE
  1

  9
$STYLESHEET
  1
monochrome.ctb
  9
$XEDIT
290
     1
  9
$CEPSNTYPE
380
     0
  9
$PSTYLEMODE
290
     1
  9
$FINGERPRINTGUID
  2
{0A22A5B0-EE49-11D4-8FEA-0001036949CE}
  9
$VERSIONGUID
  2
{C1A96D50-7884-4A8D-A6F1-506C5CCF4A36}
  9
$EXTNAMES
290
     1
  9
$PSVPSCALE
 40
0.0
  9
$OLESTARTUP
290
     0
  9
$SORTENTS
280
   127
  9
$INDEXCTL
280
     0
  9
$HIDETEXT
280
     0
  9
$XCLIPFRAME
290
     0
  9
$HALOGAP
280
     0
  9
$OBSCOLOR
 70
   257
  9
$OBSLTYPE
280
     0
  9
$INTERSECTIONDISPLAY
280
     0
  9
$INTERSECTIONCOLOR
 70
   257
  9
$DIMASSOC
280
     1
  9
$PROJECTNAME
  1

  9
$CAMERADISPLAY
290
     0
  9
$LENSLENGTH
 40
50.0
  9
$CAMERAHEIGHT
 40
0.0
  9
$STEPSPERSEC
 40
2.0
  9
$STEPSIZE
 40
6.0
  9
$3DDWFPREC
 40
2.0
  9
$PSOLWIDTH
 40
0.25
  9
$PSOLHEIGHT
 40
4.0
  9
$LOFTANG1
 40
1.570796326794896
  9
$LOFTANG2
 40
1.570796326794896
  9
$LOFTMAG1
 40
0.0
  9
$LOFTMAG2
 40
0.0
  9
$LOFTPARAM
 70
     7
  9
$LOFTNORMALS
280
     1
  9
$LATITUDE
 40
37.795
  9
$LONGITUDE
 40
-122.394
  9
$NORTHDIRECTION
 40
0.0
  9
$TIMEZONE
 70
 -8000
  9
$LIGHTGLYPHDISPLAY
280
     1
  9
$TILEMODELIGHTSYNCH
280
     1
  9
$CMATERIAL
347
63D
  9
$SOLIDHIST
280
     1
  9
$SHOWHIST
280
     1
  9
$DWFFRAME
280
     2
  9
$DGNFRAME
280
     0
  9
$REALWORLDSCALE
290
     1
  9
$INTERFERECOLOR
 62
     1
  9
$INTERFEREOBJVS
345
65F
  9
$INTERFEREVPVS
346
65C
  9
$CSHADOW
280
     0
  9
$SHADOWPLANELOCATION
 40
0.0
  0
ENDSEC
  0
SECTION
  2
CLASSES
  0
CLASS
  1
DICTIONARYVAR
  2
AcDbDictionaryVar
  3
ObjectDBX Classes
 90
        0
 91
       17
280
     0
281
     0
  0
CLASS
  1
ACDBDICTIONARYWDFLT
  2
AcDbDictionaryWithDefault
  3
ObjectDBX Classes
 90
        0
 91
        1
280
     0
281
     0
  0
CLASS
  1
MATERIAL
  2
AcDbMaterial
  3
ObjectDBX Classes
 90
     1153
 91
        3
280
     0
281
     0
  0
CLASS
  1
VISUALSTYLE
  2
AcDbVisualStyle
  3
ObjectDBX Classes
 90
     4095
 91
       24
280
     0
281
     0
  0
CLASS
  1
TABLESTYLE
  2
AcDbTableStyle
  3
ObjectDBX Classes
 90
     4095
 91
        1
280
     0
281
     0
  0
CLASS
  1
SCALE
  2
AcDbScale
  3
ObjectDBX Classes
 90
     1153
 91
       17
280
     0
281
     0
  0
CLASS
  1
MLEADERSTYLE
  2
AcDbMLeaderStyle
  3
ACDB_MLEADERSTYLE_CLASS
 90
     4095
 91
        1
280
     0
281
     0
  0
CLASS
  1
CELLSTYLEMAP
  2
AcDbCellStyleMap
  3
ObjectDBX Classes
 90
     1152
 91
        2
280
     0
281
     0
  0
ENDSEC
  0
SECTION
  2
TABLES
  0
TABLE
  2
VPORT
  5
8
330
0
100
AcDbSymbolTable
 70
     1
  0
VPORT
  5
63A
330
8
100
AcDbSymbolTableRecord
100
AcDbViewportTableRecord
  2
*Active
 70
     0
 10
0.0
 20
0.0
 11
1.0
 21
1.0
 12
5.142899020993091
 22
4.287753816678398
 13
0.0
 23
0.0
 14
0.03125
 24
0.03125
 15
0.0
 25
0.0
 16
0.0
 26
0.0
 36
1.0
 17
0.3573185072646075
 27
-0.0377537503176128
 37
-0.833359574243258
 40
9.565244080480306
 41
1.448863636363636
 42
50.0
 43
0.0
 44
0.0
 50
0.0
 51
0.0
 71
     0
 72
   100
 73
     1
 74
     0
 75
     0
 76
     0
 77
     0
 78
     0
281
     0
 65
     1
110
0.0
120
0.0
130
0.0
111
1.0
121
0.0
131
0.0
112
0.0
122
1.0
132
0.0
 79
     0
146
0.0
348
65B
 60
     3
 61
     5
292
     1
282
     1
141
0.0
142
0.0
 63
   250
421
  3355443
  0
ENDTAB
  0
TABLE
  2
LTYPE
  5
5
330
0
100
AcDbSymbolTable
 70
     5
  0
LTYPE
  5
11
330
5
100
AcDbSymbolTableRecord
100
AcDbLinetypeTableRecord
  2
BYBLOCK
 70
     0
  3

 72
    65
 73
     0
 40
0.0
  0
LTYPE
  5
12
330
5
100
AcDbSymbolTableRecord
100
AcDbLinetypeTableRecord
  2
BYLAYER
 70
     0
  3

 72
    65
 73
     0
 40
0.0
  0
LTYPE
  5
13
330
5
100
AcDbSymbolTableRecord
100
AcDbLinetypeTableRecord
  2
CONTINUOUS
 70
     0
  3
Solid line
 72
    65
 73
     0
 40
0.0
  0
LTYPE
  5
25
330
5
100
AcDbSymbolTableRecord
100
AcDbLinetypeTableRecord
  2
CENTER
 70
     0
  3
____ _ ____ _ ____ _ ____ _ ____ _ ____ _ ____
 72
    65
 73
     4
 40
2.0
 49
1.25
 74
     0
 49
-0.25
 74
     0
 49
0.25
 74
     0
 49
-0.25
 74
     0
  0
LTYPE
  5
26
330
5
100
AcDbSymbolTableRecord
100
AcDbLinetypeTableRecord
  2
HIDDEN
 70
     0
  3
_ _ _ _ _ _ _ _ _ _ _ _ _ _ _ _ _ _ _ _ _ _ _
 72
    65
 73
     2
 40
0.375
 49
0.25
 74
     0
 49
-0.125
 74
     0
  0
LTYPE
  5
27
330
5
100
AcDbSymbolTableRecord
100
AcDbLinetypeTableRecord
  2
PHANTOM
 70
     0
  3
_____ _ _ _____ _ _ _____ _ _ _____ _ _ ____
 72
    65
 73
     6
 40
2.5
 49
1.25
 74
     0
 49
-0.25
 74
     0
 49
0.25
 74
     0
 49
-0.25
 74
     0
 49
0.25
 74
     0
 49
-0.25
 74
     0
  0
ENDTAB
  0
TABLE
  2
LAYER
  5
2
102
{ACAD_XDICTIONARY
360
6AA
102
}
330
0
100
AcDbSymbolTable
 70
     5
  0
LAYER
  5
E
102
{ACAD_XDICTIONARY
360
696
102
}
330
2
100
AcDbSymbolTableRecord
100
AcDbLayerTableRecord
  2
0
 70
     0
 62
     7
  6
CONTINUOUS
370
    -3
390
5B5
347
64D
  0
LAYER
  5
2A
102
{ACAD_XDICTIONARY
360
698
102
}
330
2
100
AcDbSymbolTableRecord
100
AcDbLayerTableRecord
  2
PAPER
 70
     0
 62
     2
  6
CONTINUOUS
370
    -3
390
5B5
347
64D
  0
LAYER
  5
2C
330
2
100
AcDbSymbolTableRecord
100
AcDbLayerTableRecord
  2
DEFPOINTS
 70
     0
 62
     7
  6
CONTINUOUS
290
     0
370
    -3
390
5B5
347
64D
  0
LAYER
  5
2D
102
{ACAD_XDICTIONARY
360
69A
102
}
330
2
100
AcDbSymbolTableRecord
100
AcDbLayerTableRecord
  2
SL-TRACK
 70
     0
 62
     3
  6
CONTINUOUS
370
    -3
390
5B5
347
64D
  0
LAYER
  5
30
102
{ACAD_XDICTIONARY
360
69C
102
}
330
2
100
AcDbSymbolTableRecord
100
AcDbLayerTableRecord
  2
HL-TRACK
 70
     0
 62
     2
  6
CONTINUOUS
370
    -3
390
5B5
347
64D
  0
ENDTAB
  0
TABLE
  2
STYLE
  5
3
330
0
100
AcDbSymbolTable
 70
     7
  0
STYLE
  5
F
330
3
100
AcDbSymbolTableRecord
100
AcDbTextStyleTableRecord
  2
STANDARD
 70
     0
 40
0.0
 41
1.0
 50
0.0
 71
     0
 42
0.07
  3
ROMANS
  4

  0
STYLE
  5
23
330
3
100
AcDbSymbolTableRecord
100
AcDbTextStyleTableRecord
  2
ROMANT
 70
     0
 40
0.0
 41
1.0
 50
0.0
 71
     0
 42
0.06
  3
romant
  4

  0
STYLE
  5
24
330
3
100
AcDbSymbolTableRecord
100
AcDbTextStyleTableRecord
  2
B
 70
     0
 40
0.0
 41
1.0
 50
0.0
 71
     0
 42
0.07
  3
romand
  4

  0
STYLE
  5
5BE
330
3
100
AcDbSymbolTableRecord
100
AcDbTextStyleTableRecord
  2
ARIAL1
 70
     0
 40
0.0
 41
1.0
 50
0.0
 71
     0
 42
0.07
  3
ARIAL.TTF
  4

1001
ACAD
1000
Arial
1071
       34
  0
STYLE
  5
5C6
330
3
100
AcDbSymbolTableRecord
100
AcDbTextStyleTableRecord
  2
ARIALB
 70
     0
 40
0.0
 41
1.0
 50
0.0
 71
     0
 42
0.07
  3
ARIBLK.TTF
  4

1001
ACAD
1000
Arial Black
1071
       34
  0
STYLE
  5
612
330
3
100
AcDbSymbolTableRecord
100
AcDbTextStyleTableRecord
  2
ARIAL2
 70
     0
 40
0.0
 41
1.0
 50
0.0
 71
     0
 42
0.07
  3
ARIALBD.TTF
  4

1001
ACAD
1000
Arial
1071
 33554466
  0
ENDTAB
  0
TABLE
  2
VIEW
  5
6
330
0
100
AcDbSymbolTable
 70
     1
  0
ENDTAB
  0
TABLE
  2
UCS
  5
7
330
0
100
AcDbSymbolTable
 70
     0
  0
ENDTAB
  0
TABLE
  2
APPID
  5
9
330
0
100
AcDbSymbolTable
 70
     3
  0
APPID
  5
10
330
9
100
AcDbSymbolTableRecord
100
AcDbRegAppTableRecord
  2
ACAD
 70
     0
  0
APPID
  5
693
330
9
100
AcDbSymbolTableRecord
100
AcDbRegAppTableRecord
  2
ACAD_EXEMPT_FROM_CAD_STANDARDS
 70
     0
  0
APPID
  5
729
330
9
100
AcDbSymbolTableRecord
100
AcDbRegAppTableRecord
  2
ACAD_MLEADERVER
 70
     0
  0
ENDTAB
  0
TABLE
  2
DIMSTYLE
  5
A
330
0
100
AcDbSymbolTable
 70
     2
100
AcDbDimStyleTable
 71
     1
340
59B
  0
DIMSTYLE
105
59B
330
A
100
AcDbSymbolTableRecord
100
AcDbDimStyleTableRecord
  2
STANDARD
 70
     0
340
F
  0
ENDTAB
  0
TABLE
  2
BLOCK_RECORD
  5
1
330
0
100
AcDbSymbolTable
 70
     3
  0
BLOCK_RECORD
  5
17
330
1
100
AcDbSymbolTableRecord
100
AcDbBlockTableRecord
  2
*MODEL_SPACE
340
5B8
 70
     0
280
     1
281
     0
  0
BLOCK_RECORD
  5
14
330
1
100
AcDbSymbolTableRecord
100
AcDbBlockTableRecord
  2
*PAPER_SPACE
340
5B9
 70
     0
280
     1
281
     0
  0
BLOCK_RECORD
  5
1C
330
1
100
AcDbSymbolTableRecord
100
AcDbBlockTableRecord
  2
RECT
340
0
102
{BLKREFS
331
386
331
387
331
388
331
389
331
4D1
331
4D3
331
4E6
331
4E7
331
4EB
331
4EC
331
4ED
331
4EE
331
4F3
331
4F4
331
552
331
553
331
57C
331
57F
331
580
331
581
102
}
 70
     0
280
     1
281
     0
  0
BLOCK_RECORD
  5
22
330
1
100
AcDbSymbolTableRecord
100
AcDbBlockTableRecord
  2
12393
340
0
102
{BLKREFS
331
59A
102
}
 70
     0
280
     1
281
     0
  0
ENDTAB
  0
ENDSEC
  0
SECTION
  2
BLOCKS
  0
BLOCK
  5
33
330
17
100
AcDbEntity
  8
0
100
AcDbBlockBegin
  2
*MODEL_SPACE
 70
     0
 10
0.0
 20
0.0
 30
0.0
  3
*MODEL_SPACE
  1

  0
ENDBLK
  5
34
330
17
100
AcDbEntity
  8
0
100
AcDbBlockEnd
  0
BLOCK
  5
31
330
14
100
AcDbEntity
 67
     1
  8
0
100
AcDbBlockBegin
  2
*PAPER_SPACE
 70
     0
 10
0.0
 20
0.0
 30
0.0
  3
*PAPER_SPACE
  1

  0
ENDBLK
  5
32
330
14
100
AcDbEntity
 67
     1
  8
0
100
AcDbBlockEnd
  0
BLOCK
  5
37
330
1C
100
AcDbEntity
  8
0
100
AcDbBlockBegin
  2
RECT
 70
     0
 10
0.0
 20
0.0
 30
0.0
  3
RECT
  1

  0
LWPOLYLINE
  5
38
330
1C
100
AcDbEntity
  8
0
100
AcDbPolyline
 90
        4
 70
     1
 43
0.0
 10
0.0
 20
0.0
 10
1.0
 20
0.0
 10
1.0
 20
1.0
 10
0.0
 20
1.0
  0
ENDBLK
  5
3E
330
1C
100
AcDbEntity
  8
0
100
AcDbBlockEnd
  0
BLOCK
  5
1E9
330
22
100
AcDbEntity
  8
0
100
AcDbBlockBegin
  2
12393
 70
     0
 10
0.0
 20
0.0
 30
0.0
  3
12393
  1

  0
LWPOLYLINE
  5
1EA
330
22
100
AcDbEntity
  8
PAPER
100
AcDbPolyline
 90
        6
 70
     1
 43
0.0
 10
0.4306642771816369
 20
0.4928167194996974
 10
0.1694889343491986
 20
0.4928167194996974
 10
0.1694889343491986
 20
0.406996324339807
 42
0.4142135623730912
 10
0.239367970629761
 20
0.3371172880592399
 10
0.5005433134622073
 20
0.3371172880592399
 10
0.5005433134622073
 20
0.4229376832191305
 42
0.4142135623730912
  0
TEXT
  5
1F2
330
22
100
AcDbEntity
  8
PAPER
100
AcDbText
 10
0.1968389652516827
 20
0.0653685483710036
 30
0.0
 40
0.08
  1
COMPANY
  7
B
100
AcDbText
  0
TEXT
  5
1F3
330
22
100
AcDbEntity
  8
PAPER
100
AcDbText
 10
0.1994274219848929
 20
0.1867646562232728
 30
0.0
 40
0.08
  1
BUILDING PRODUCTS
  7
B
100
AcDbText
  0
LWPOLYLINE
  5
1F4
330
22
100
AcDbEntity
  8
PAPER
100
AcDbPolyline
 90
       18
 70
     1
 43
0.0
 10
0.6765762518365296
 20
0.604111179110729
 10
0.6765762518365296
 20
0.5323750641537762
 10
0.7403416873538186
 20
0.5323750641537762
 10
0.7403416873538186
 20
0.6120818585503898
 42
0.4142135623730951
 10
0.7004882901555131
 20
0.6519352557486967
 10
0.6207814957588976
 20
0.651935255748697
 42
0.4142135623730951
 10
0.5809280985605884
 20
0.6120818585503898
 10
0.5809280985605884
 20
0.4128148725588553
 42
0.4142135623730953
 10
0.6207814957588976
 20
0.3729614753605477
 10
0.7004882901555131
 20
0.3729614753605477
 42
0.4142135623730951
 10
0.7403416873538186
 20
0.4128148725588553
 10
0.7403416873538186
 20
0.4925216669554695
 10
0.6765762518365296
 20
0.4925216669554695
 10
0.6765762518365296
 20
0.4207855519985151
 42
-0.4142135623730969
 10
0.6606348929572074
 20
0.4048441931191929
 42
-0.4142135623730943
 10
0.6446935340778858
 20
0.4207855519985151
 10
0.6446935340778773
 20
0.604111179110729
 42
-0.4142135623730951
 10
0.6606348929572074
 20
0.6200525379900517
 42
-0.4142135623730969
  0
LINE
  5
208
330
22
100
AcDbEntity
  8
PAPER
100
AcDbLine
 10
0.179962485820331
 20
0.5476544388800927
 30
0.0
 11
0.4540157620275672
 21
0.5476544388800927
 31
0.0
  0
LINE
  5
209
330
22
100
AcDbEntity
  8
PAPER
100
AcDbLine
 10
0.179962485820331
 20
0.5534249114501176
 30
0.0
 11
0.4644636791176112
 21
0.5534249114501176
 31
0.0
  0
LINE
  5
20A
330
22
100
AcDbEntity
  8
PAPER
100
AcDbLine
 10
0.2082694119570478
 20
0.6688343628506253
 30
0.0
 11
0.4900697619910666
 21
0.6688343628506253
 31
0.0
  0
LINE
  5
20B
330
22
100
AcDbEntity
  8
PAPER
100
AcDbLine
 10
0.2004068563776899
 20
0.6630638902805995
 30
0.0
 11
0.4900697619910666
 21
0.6630638902805995
 31
0.0
  0
LINE
  5
20C
330
22
100
AcDbEntity
  8
PAPER
100
AcDbLine
 10
0.1946217999705963
 20
0.6572934177105746
 30
0.0
 11
0.4900697619910666
 21
0.6572934177105746
 31
0.0
  0
LINE
  5
20D
330
22
100
AcDbEntity
  8
PAPER
100
AcDbLine
 10
0.1901757512634294
 20
0.6515229451405487
 30
0.0
 11
0.4900697619910679
 21
0.6515229451405487
 31
0.0
  0
LINE
  5
20E
330
22
100
AcDbEntity
  8
PAPER
100
AcDbLine
 10
0.1867283240091624
 20
0.6457524725705238
 30
0.0
 11
0.4900697619910666
 21
0.6457524725705238
 31
0.0
  0
LINE
  5
20F
330
22
100
AcDbEntity
  8
PAPER
100
AcDbLine
 10
0.1840923553989955
 20
0.639982000000498
 30
0.0
 11
0.4900697619910679
 21
0.639982000000498
 31
0.0
  0
LINE
  5
210
330
22
100
AcDbEntity
  8
PAPER
100
AcDbLine
 10
0.1821555753418569
 20
0.634211527430473
 30
0.0
 11
0.4900697619910679
 21
0.634211527430473
 31
0.0
  0
LINE
  5
211
330
22
100
AcDbEntity
  8
PAPER
100
AcDbLine
 10
0.1808485208488484
 20
0.6284410548604472
 30
0.0
 11
0.4900697619910666
 21
0.6284410548604481
 31
0.0
  0
LINE
  5
212
330
22
100
AcDbEntity
  8
PAPER
100
AcDbLine
 10
0.1801294939159545
 20
0.6226705822904222
 30
0.0
 11
0.4900697619910666
 21
0.6226705822904222
 31
0.0
  0
LINE
  5
213
330
22
100
AcDbEntity
  8
PAPER
100
AcDbLine
 10
0.179962485820331
 20
0.6169001097203973
 30
0.0
 11
0.4900697619910666
 21
0.6169001097203973
 31
0.0
  0
LINE
  5
214
330
22
100
AcDbEntity
  8
PAPER
100
AcDbLine
 10
0.179962485820331
 20
0.6111296371503715
 30
0.0
 11
0.4900697619910666
 21
0.6111296371503715
 31
0.0
  0
LINE
  5
215
330
22
100
AcDbEntity
  8
PAPER
100
AcDbLine
 10
0.179962485820331
 20
0.6053591645803456
 30
0.0
 11
0.4900697619910666
 21
0.6053591645803465
 31
0.0
  0
LINE
  5
216
330
22
100
AcDbEntity
  8
PAPER
100
AcDbLine
 10
0.179962485820331
 20
0.5995886920103207
 30
0.0
 11
0.4900088634547457
 21
0.5995886920103207
 31
0.0
  0
LINE
  5
217
330
22
100
AcDbEntity
  8
PAPER
100
AcDbLine
 10
0.179962485820331
 20
0.5938182194402958
 30
0.0
 11
0.489464326944437
 21
0.5938182194402958
 31
0.0
  0
LINE
  5
218
330
22
100
AcDbEntity
  8
PAPER
100
AcDbLine
 10
0.179962485820331
 20
0.5880477468702699
 30
0.0
 11
0.4883402260418935
 21
0.5880477468702699
 31
0.0
  0
LINE
  5
219
330
22
100
AcDbEntity
  8
PAPER
100
AcDbLine
 10
0.179962485820331
 20
0.582277274300245
 30
0.0
 11
0.4866016313770596
 21
0.582277274300245
 31
0.0
  0
LINE
  5
21A
330
22
100
AcDbEntity
  8
PAPER
100
AcDbLine
 10
0.179962485820331
 20
0.5765068017302191
 30
0.0
 11
0.4841886959498878
 21
0.57650680173022
 31
0.0
  0
LINE
  5
21B
330
22
100
AcDbEntity
  8
PAPER
100
AcDbLine
 10
0.179962485820331
 20
0.5707363291601942
 30
0.0
 11
0.4810045444357528
 21
0.5707363291601942
 31
0.0
  0
LINE
  5
21C
330
22
100
AcDbEntity
  8
PAPER
100
AcDbLine
 10
0.179962485820331
 20
0.5649658565901684
 30
0.0
 11
0.476890080609836
 21
0.5649658565901684
 31
0.0
  0
LINE
  5
21D
330
22
100
AcDbEntity
  8
PAPER
100
AcDbLine
 10
0.179962485820331
 20
0.5591953840201434
 30
0.0
 11
0.4715655068768332
 21
0.5591953840201434
 31
0.0
  0
LINE
  5
21E
330
22
100
AcDbEntity
  8
PAPER
100
AcDbLine
 10
0.1799624858203297
 20
0.4797017933670292
 30
0.0
 11
0.4481813381384436
 21
0.4797017933670292
 31
0.0
  0
LINE
  5
21F
330
22
100
AcDbEntity
  8
PAPER
100
AcDbLine
 10
0.1799624858203297
 20
0.4739313207970051
 30
0.0
 11
0.4611382095177341
 21
0.4739313207970043
 31
0.0
  0
LINE
  5
220
330
22
100
AcDbEntity
  8
PAPER
100
AcDbLine
 10
0.1799624858203297
 20
0.4681608482269793
 30
0.0
 11
0.4691854008946813
 21
0.4681608482269793
 31
0.0
  0
LINE
  5
221
330
22
100
AcDbEntity
  8
PAPER
100
AcDbLine
 10
0.1799624858203297
 20
0.4623903756569535
 30
0.0
 11
0.4750770758420224
 21
0.4623903756569535
 31
0.0
  0
LINE
  5
222
330
22
100
AcDbEntity
  8
PAPER
100
AcDbLine
 10
0.1799624858203297
 20
0.4566199030869285
 30
0.0
 11
0.479598106893014
 21
0.4566199030869285
 31
0.0
  0
LINE
  5
223
330
22
100
AcDbEntity
  8
PAPER
100
AcDbLine
 10
0.1799624858203297
 20
0.4508494305169027
 30
0.0
 11
0.4831042046055581
 21
0.4508494305169027
 31
0.0
  0
LINE
  5
224
330
22
100
AcDbEntity
  8
PAPER
100
AcDbLine
 10
0.1799624858203297
 20
0.4450789579468778
 30
0.0
 11
0.485789367466116
 21
0.4450789579468778
 31
0.0
  0
LINE
  5
225
330
22
100
AcDbEntity
  8
PAPER
100
AcDbLine
 10
0.1799624858203297
 20
0.4393084853768519
 30
0.0
 11
0.4877695174154331
 21
0.4393084853768519
 31
0.0
  0
LINE
  5
226
330
22
100
AcDbEntity
  8
PAPER
100
AcDbLine
 10
0.1799624858203297
 20
0.433538012806827
 30
0.0
 11
0.4891163484715177
 21
0.433538012806827
 31
0.0
  0
LINE
  5
227
330
22
100
AcDbEntity
  8
PAPER
100
AcDbLine
 10
0.1799624858203297
 20
0.4277675402368021
 30
0.0
 11
0.4898730949931477
 21
0.4277675402368021
 31
0.0
  0
LINE
  5
228
330
22
100
AcDbEntity
  8
PAPER
100
AcDbLine
 10
0.1799624858203297
 20
0.4219970676667762
 30
0.0
 11
0.4900697619910666
 21
0.4219970676667762
 31
0.0
  0
LINE
  5
229
330
22
100
AcDbEntity
  8
PAPER
100
AcDbLine
 10
0.1799624858203297
 20
0.4162265950967513
 30
0.0
 11
0.4900697619910666
 21
0.4162265950967513
 31
0.0
  0
LINE
  5
22A
330
22
100
AcDbEntity
  8
PAPER
100
AcDbLine
 10
0.1799624858203297
 20
0.4104561225267254
 30
0.0
 11
0.4900697619910666
 21
0.4104561225267254
 31
0.0
  0
LINE
  5
22B
330
22
100
AcDbEntity
  8
PAPER
100
AcDbLine
 10
0.1800074415777251
 20
0.4046856499567005
 30
0.0
 11
0.4900697619910661
 21
0.4046856499567005
 31
0.0
  0
LINE
  5
22C
330
22
100
AcDbEntity
  8
PAPER
100
AcDbLine
 10
0.1805147065795245
 20
0.3989151773866746
 30
0.0
 11
0.4900697619910661
 21
0.3989151773866746
 31
0.0
  0
LINE
  5
22D
330
22
100
AcDbEntity
  8
PAPER
100
AcDbLine
 10
0.1815999495278901
 20
0.3931447048166496
 30
0.0
 11
0.4900697619910666
 21
0.3931447048166496
 31
0.0
  0
LINE
  5
22E
330
22
100
AcDbEntity
  8
PAPER
100
AcDbLine
 10
0.1832967201770794
 20
0.3873742322466238
 30
0.0
 11
0.4900697619910666
 21
0.3873742322466238
 31
0.0
  0
LINE
  5
22F
330
22
100
AcDbEntity
  8
PAPER
100
AcDbLine
 10
0.1856629495863802
 20
0.3816037596765989
 30
0.0
 11
0.4900697619910666
 21
0.3816037596765989
 31
0.0
  0
LINE
  5
230
330
22
100
AcDbEntity
  8
PAPER
100
AcDbLine
 10
0.1887925147658442
 20
0.375833287106573
 30
0.0
 11
0.4900697619910679
 21
0.375833287106573
 31
0.0
  0
LINE
  5
231
330
22
100
AcDbEntity
  8
PAPER
100
AcDbLine
 10
0.1928391894394334
 20
0.3700628145365481
 30
0.0
 11
0.4900697619910666
 21
0.3700628145365481
 31
0.0
  0
LINE
  5
232
330
22
100
AcDbEntity
  8
PAPER
100
AcDbLine
 10
0.1980717054850516
 20
0.3642923419665223
 30
0.0
 11
0.4900697619910661
 21
0.3642923419665223
 31
0.0
  0
LINE
  5
233
330
22
100
AcDbEntity
  8
PAPER
100
AcDbLine
 10
0.2050279234051501
 20
0.3585218693964973
 30
0.0
 11
0.4900697619910661
 21
0.3585218693964973
 31
0.0
  0
LWPOLYLINE
  5
234
330
22
100
AcDbEntity
  8
PAPER
100
AcDbPolyline
 90
        6
 70
     1
 43
0.0
 10
0.5005433134622073
 20
0.602277875067701
 42
-0.4142135623730912
 10
0.4306642771816369
 20
0.5323988387871342
 10
0.1694889343491986
 20
0.5323988387871348
 10
0.1694889343491986
 20
0.6182192339470243
 42
-0.4142135623730912
 10
0.239367970629761
 20
0.6880982702275914
 10
0.5005433134622073
 20
0.6880982702275917
  0
LWPOLYLINE
  5
23C
330
22
100
AcDbEntity
  8
PAPER
100
AcDbPolyline
 90
        6
 70
     1
 43
0.0
 10
0.4306642771816369
 20
0.4823431680285597
 10
0.1799624858203308
 20
0.4823431680285597
 10
0.1799624858203308
 20
0.406996324339807
 42
0.4142135623730903
 10
0.239367970629761
 20
0.3475908395303771
 10
0.4900697619910668
 20
0.3475908395303771
 10
0.4900697619910668
 20
0.4229376832191305
 42
0.4142135623730933
  0
LWPOLYLINE
  5
244
330
22
100
AcDbEntity
  8
PAPER
100
AcDbPolyline
 90
        6
 70
     1
 43
0.0
 10
0.4900697619910668
 20
0.602277875067701
 42
-0.4142135623730941
 10
0.4306642771816369
 20
0.5428723902582718
 10
0.1799624858203308
 20
0.5428723902582722
 10
0.1799624858203308
 20
0.6182192339470243
 42
-0.4142135623730911
 10
0.239367970629761
 20
0.6776247187564537
 10
0.4900697619910668
 20
0.677624718756454
  0
LINE
  5
24C
330
22
100
AcDbEntity
  8
PAPER
100
AcDbLine
 10
0.2206683564119276
 20
0.6746048354206503
 30
0.0
 11
0.4900697619910666
 21
0.6746048354206503
 31
0.0
  0
LINE
  5
24D
330
22
100
AcDbEntity
  8
PAPER
100
AcDbLine
 10
0.2151502196087309
 20
0.3527513968264715
 30
0.0
 11
0.4900697619910666
 21
0.3527513968264715
 31
0.0
  0
LINE
  5
24E
330
22
100
AcDbEntity
  8
PAPER
100
AcDbLine
 10
0.6993060123198396
 20
0.5323750641537764
 30
0.0
 11
0.6993060123198396
 21
0.6519352557486967
 31
0.0
  0
LINE
  5
24F
330
22
100
AcDbEntity
  8
PAPER
100
AcDbLine
 10
0.6819945946097639
 20
0.5323750641537764
 30
0.0
 11
0.6819945946097639
 21
0.6519352557486967
 31
0.0
  0
LINE
  5
250
330
22
100
AcDbEntity
  8
PAPER
100
AcDbLine
 10
0.6935355397498143
 20
0.5323750641537764
 30
0.0
 11
0.6935355397498143
 21
0.6519352557486967
 31
0.0
  0
LINE
  5
251
330
22
100
AcDbEntity
  8
PAPER
100
AcDbLine
 10
0.687765067179787
 20
0.5323750641537764
 30
0.0
 11
0.6877650671797884
 21
0.6519352557486967
 31
0.0
  0
LINE
  5
252
330
22
100
AcDbEntity
  8
PAPER
100
AcDbLine
 10
0.6762241220397389
 20
0.6074432744763766
 30
0.0
 11
0.6762241220397389
 21
0.6519352557486967
 31
0.0
  0
LINE
  5
253
330
22
100
AcDbEntity
  8
PAPER
100
AcDbLine
 10
0.6704536494697131
 20
0.6166697993956756
 30
0.0
 11
0.6704536494697131
 21
0.6519352557486967
 31
0.0
  0
LINE
  5
254
330
22
100
AcDbEntity
  8
PAPER
100
AcDbLine
 10
0.6646831768996873
 20
0.6195299443023499
 30
0.0
 11
0.6646831768996873
 21
0.6519352557486967
 31
0.0
  0
LINE
  5
255
330
22
100
AcDbEntity
  8
PAPER
100
AcDbLine
 10
0.6473717591896115
 20
0.6129551717373801
 30
0.0
 11
0.6473717591896115
 21
0.6519352557486967
 31
0.0
  0
LINE
  5
256
330
22
100
AcDbEntity
  8
PAPER
100
AcDbLine
 10
0.6531422317596383
 20
0.6181819627099408
 30
0.0
 11
0.6531422317596379
 21
0.6519352557486967
 31
0.0
  0
LINE
  5
257
330
22
100
AcDbEntity
  8
PAPER
100
AcDbLine
 10
0.6589127043296611
 20
0.6199592385896827
 30
0.0
 11
0.6589127043296611
 21
0.6519352557486967
 31
0.0
  0
LINE
  5
258
330
22
100
AcDbEntity
  8
PAPER
100
AcDbLine
 10
0.6993060123198396
 20
0.3729614753605472
 30
0.0
 11
0.6993060123198396
 21
0.4925216669554694
 31
0.0
  0
LINE
  5
259
330
22
100
AcDbEntity
  8
PAPER
100
AcDbLine
 10
0.6935355397498155
 20
0.3729614753605472
 30
0.0
 11
0.6935355397498143
 21
0.4925216669554694
 31
0.0
  0
LINE
  5
25A
330
22
100
AcDbEntity
  8
PAPER
100
AcDbLine
 10
0.687765067179787
 20
0.3729614753605472
 30
0.0
 11
0.687765067179787
 21
0.4925216669554694
 31
0.0
  0
LINE
  5
25B
330
22
100
AcDbEntity
  8
PAPER
100
AcDbLine
 10
0.6819945946097639
 20
0.3729614753605472
 30
0.0
 11
0.6819945946097639
 21
0.4925216669554694
 31
0.0
  0
LINE
  5
25C
330
22
100
AcDbEntity
  8
PAPER
100
AcDbLine
 10
0.6762241220397398
 20
0.3729614753605472
 30
0.0
 11
0.6762241220397398
 21
0.4174534566320139
 31
0.0
  0
LINE
  5
25D
330
22
100
AcDbEntity
  8
PAPER
100
AcDbLine
 10
0.6704536494697131
 20
0.3729614753605472
 30
0.0
 11
0.6704536494697131
 21
0.4082269317133357
 31
0.0
  0
LINE
  5
25E
330
22
100
AcDbEntity
  8
PAPER
100
AcDbLine
 10
0.6646831768996873
 20
0.3729614753605472
 30
0.0
 11
0.6646831768996873
 21
0.4053667868067049
 31
0.0
  0
LINE
  5
25F
330
22
100
AcDbEntity
  8
PAPER
100
AcDbLine
 10
0.658912704329662
 20
0.3729614753605472
 30
0.0
 11
0.658912704329662
 21
0.4049374925195134
 31
0.0
  0
LINE
  5
260
330
22
100
AcDbEntity
  8
PAPER
100
AcDbLine
 10
0.6531422317596379
 20
0.3729614753605472
 30
0.0
 11
0.6531422317596383
 21
0.4067147683992561
 31
0.0
  0
LINE
  5
261
330
22
100
AcDbEntity
  8
PAPER
100
AcDbLine
 10
0.6473717591896115
 20
0.3729614753605472
 30
0.0
 11
0.6473717591896115
 21
0.4119415593717804
 31
0.0
  0
LINE
  5
262
330
22
100
AcDbEntity
  8
PAPER
100
AcDbLine
 10
0.6416012866195871
 20
0.3729614753605472
 30
0.0
 11
0.6416012866195857
 21
0.6519352557486967
 31
0.0
  0
LINE
  5
263
330
22
100
AcDbEntity
  8
PAPER
100
AcDbLine
 10
0.6358308140495599
 20
0.3729614753605472
 30
0.0
 11
0.6358308140495604
 21
0.6519352557486967
 31
0.0
  0
LINE
  5
264
330
22
100
AcDbEntity
  8
PAPER
100
AcDbLine
 10
0.6300603414795355
 20
0.3729614753605472
 30
0.0
 11
0.6300603414795355
 21
0.6519352557486967
 31
0.0
  0
LINE
  5
265
330
22
100
AcDbEntity
  8
PAPER
100
AcDbLine
 10
0.6242898689095091
 20
0.3729614753605472
 30
0.0
 11
0.6242898689095091
 21
0.6519352557486967
 31
0.0
  0
LINE
  5
266
330
22
100
AcDbEntity
  8
PAPER
100
AcDbLine
 10
0.6185193963394847
 20
0.3730257261183592
 30
0.0
 11
0.6185193963394847
 21
0.6518710049910207
 31
0.0
  0
LINE
  5
267
330
22
100
AcDbEntity
  8
PAPER
100
AcDbLine
 10
0.6127489237694597
 20
0.3737793623728576
 30
0.0
 11
0.6127489237694597
 21
0.6511173687364645
 31
0.0
  0
LINE
  5
268
330
22
100
AcDbEntity
  8
PAPER
100
AcDbLine
 10
0.6069784511994339
 20
0.3754281205050043
 30
0.0
 11
0.6069784511994339
 21
0.6494686106042734
 31
0.0
  0
LINE
  5
269
330
22
100
AcDbEntity
  8
PAPER
100
AcDbLine
 10
0.6012079786294072
 20
0.3780993040710958
 30
0.0
 11
0.6012079786294081
 21
0.6467974270381588
 31
0.0
  0
LINE
  5
26A
330
22
100
AcDbEntity
  8
PAPER
100
AcDbLine
 10
0.5954375060593826
 20
0.3820581585868197
 30
0.0
 11
0.5954375060593826
 21
0.6428385725224802
 31
0.0
  0
LINE
  5
26B
330
22
100
AcDbEntity
  8
PAPER
100
AcDbLine
 10
0.5896670334893591
 20
0.3879113887478656
 30
0.0
 11
0.5896670334893591
 21
0.6369853423614174
 31
0.0
  0
LINE
  5
26C
330
22
100
AcDbEntity
  8
PAPER
100
AcDbLine
 10
0.5838965609193315
 20
0.3977219984081894
 30
0.0
 11
0.5838965609193327
 21
0.6271747327012845
 31
0.0
  0
LWPOLYLINE
  5
26D
330
22
100
AcDbEntity
  8
PAPER
100
AcDbPolyline
 90
        5
 70
     0
 43
0.0
 10
0.9134655158037315
 20
0.5048096616906559
 42
-1.00459822107278
 10
0.9453475625419073
 20
0.5049559268813409
 10
0.9453475625419073
 20
0.4207855519985151
 42
-0.9999999999999996
 10
0.9134648447832638
 20
0.4207855519985151
 10
0.9134648447832638
 20
0.5049559268813409
  0
LWPOLYLINE
  5
274
330
22
100
AcDbEntity
  8
PAPER
100
AcDbPolyline
 90
        8
 70
     1
 43
0.0
 10
1.009112998059204
 20
0.5129266063210024
 10
1.009112998059204
 20
0.4128148725588541
 42
-0.4142135623730951
 10
0.9692596008608955
 20
0.3729614753605477
 10
0.8895528064642801
 20
0.3729614753605477
 42
-0.4142135623730951
 10
0.8496994092659749
 20
0.4128148725588544
 10
0.8496994092659699
 20
0.5129266063210024
 42
-0.4142135623730951
 10
0.8895528064642801
 20
0.5527800035193087
 10
0.9692596008608955
 20
0.5527800035193087
 42
-0.4142135623730951
  0
LINE
  5
27E
330
22
100
AcDbEntity
  8
PAPER
100
AcDbLine
 10
0.7396993203100186
 20
0.5323750641537764
 30
0.0
 11
0.7396993203100183
 21
0.6192084553866451
 31
0.0
  0
LINE
  5
27F
330
22
100
AcDbEntity
  8
PAPER
100
AcDbLine
 10
0.7339288477399933
 20
0.5323750641537764
 30
0.0
 11
0.7339288477399919
 21
0.6337618580126446
 31
0.0
  0
LINE
  5
280
330
22
100
AcDbEntity
  8
PAPER
100
AcDbLine
 10
0.7281583751699661
 20
0.5323750641537764
 30
0.0
 11
0.7281583751699661
 21
0.6407639028210291
 31
0.0
  0
LINE
  5
281
330
22
100
AcDbEntity
  8
PAPER
100
AcDbLine
 10
0.7108469574598882
 20
0.5323750641537764
 30
0.0
 11
0.7108469574598909
 21
0.6505655080645008
 31
0.0
  0
LINE
  5
282
330
22
100
AcDbEntity
  8
PAPER
100
AcDbLine
 10
0.7223879025999402
 20
0.5323750641537764
 30
0.0
 11
0.7223879025999408
 21
0.6453790092247925
 31
0.0
  0
LINE
  5
283
330
22
100
AcDbEntity
  8
PAPER
100
AcDbLine
 10
0.7166174300299153
 20
0.5323750641537764
 30
0.0
 11
0.7166174300299153
 21
0.6485255701500135
 31
0.0
  0
LINE
  5
284
330
22
100
AcDbEntity
  8
PAPER
100
AcDbLine
 10
0.7050764848898645
 20
0.5323750641537764
 30
0.0
 11
0.7050764848898645
 21
0.6516702626268386
 31
0.0
  0
LINE
  5
285
330
22
100
AcDbEntity
  8
PAPER
100
AcDbLine
 10
0.8147154637203451
 20
0.3729614753605481
 30
0.0
 11
0.814715463720346
 21
0.6522540829262836
 31
0.0
  0
LINE
  5
286
330
22
100
AcDbEntity
  8
PAPER
100
AcDbLine
 10
0.8089449911503201
 20
0.3729614753605481
 30
0.0
 11
0.8089449911503201
 21
0.6522540829262836
 31
0.0
  0
LINE
  5
287
330
22
100
AcDbEntity
  8
PAPER
100
AcDbLine
 10
0.803174518580297
 20
0.3729614753605481
 30
0.0
 11
0.803174518580297
 21
0.6522540829262836
 31
0.0
  0
LINE
  5
288
330
22
100
AcDbEntity
  8
PAPER
100
AcDbLine
 10
0.7974040460102698
 20
0.3729614753605481
 30
0.0
 11
0.7974040460102712
 21
0.6522540829262836
 31
0.0
  0
LINE
  5
289
330
22
100
AcDbEntity
  8
PAPER
100
AcDbLine
 10
0.7916335734402445
 20
0.3729614753605481
 30
0.0
 11
0.7916335734402454
 21
0.6522540829262836
 31
0.0
  0
LINE
  5
28A
330
22
100
AcDbEntity
  8
PAPER
100
AcDbLine
 10
0.7858631008702199
 20
0.3729614753605481
 30
0.0
 11
0.7858631008702199
 21
0.6522540829262836
 31
0.0
  0
LINE
  5
28B
330
22
100
AcDbEntity
  8
PAPER
100
AcDbLine
 10
0.7800926283001946
 20
0.3729614753605481
 30
0.0
 11
0.7800926283001946
 21
0.6522540829262836
 31
0.0
  0
LINE
  5
28C
330
22
100
AcDbEntity
  8
PAPER
100
AcDbLine
 10
0.774322155730167
 20
0.3729614753605481
 30
0.0
 11
0.7743221557301683
 21
0.6522540829262836
 31
0.0
  0
LINE
  5
28D
330
22
100
AcDbEntity
  8
PAPER
100
AcDbLine
 10
0.7396993203100183
 20
0.4056882757221059
 30
0.0
 11
0.7396993203100186
 21
0.4925216669554694
 31
0.0
  0
LINE
  5
28E
330
22
100
AcDbEntity
  8
PAPER
100
AcDbLine
 10
0.7339288477399919
 20
0.3911348730964466
 30
0.0
 11
0.7339288477399933
 21
0.4925216669554694
 31
0.0
  0
LINE
  5
28F
330
22
100
AcDbEntity
  8
PAPER
100
AcDbLine
 10
0.7281583751699675
 20
0.3841328282881988
 30
0.0
 11
0.7281583751699675
 21
0.4925216669554694
 31
0.0
  0
LINE
  5
290
330
22
100
AcDbEntity
  8
PAPER
100
AcDbLine
 10
0.7223879025999408
 20
0.3795177218844346
 30
0.0
 11
0.7223879025999402
 21
0.4925216669554694
 31
0.0
  0
LINE
  5
291
330
22
100
AcDbEntity
  8
PAPER
100
AcDbLine
 10
0.7166174300299153
 20
0.3763711609591451
 30
0.0
 11
0.7166174300299153
 21
0.4925216669554694
 31
0.0
  0
LINE
  5
292
330
22
100
AcDbEntity
  8
PAPER
100
AcDbLine
 10
0.7108469574598895
 20
0.3743312230446996
 30
0.0
 11
0.7108469574598882
 21
0.4925216669554694
 31
0.0
  0
LINE
  5
293
330
22
100
AcDbEntity
  8
PAPER
100
AcDbLine
 10
0.7050764848898645
 20
0.3732264684822713
 30
0.0
 11
0.7050764848898645
 21
0.4925216669554694
 31
0.0
  0
LWPOLYLINE
  5
294
330
22
100
AcDbEntity
  8
PAPER
100
AcDbPolyline
 90
        4
 70
     1
 43
0.0
 10
0.7703114420469431
 20
0.6522540829262833
 10
0.820048481750431
 20
0.6522540829262833
 10
0.820048481750431
 20
0.3729614753605477
 10
0.7703114420469431
 20
0.3729614753605477
  0
LINE
  5
29A
330
22
100
AcDbEntity
  8
PAPER
100
AcDbLine
 10
0.9416658602609027
 20
0.5151455168146607
 30
0.0
 11
0.9416658602609027
 21
0.5527800035193094
 31
0.0
  0
LINE
  5
29B
330
22
100
AcDbEntity
  8
PAPER
100
AcDbLine
 10
0.9358953876908786
 20
0.5195167446319065
 30
0.0
 11
0.9358953876908781
 21
0.5527800035193094
 31
0.0
  0
LINE
  5
29C
330
22
100
AcDbEntity
  8
PAPER
100
AcDbLine
 10
0.9185839699808029
 20
0.5166608908306677
 30
0.0
 11
0.9185839699808029
 21
0.5527800035193094
 31
0.0
  0
LINE
  5
29D
330
22
100
AcDbEntity
  8
PAPER
100
AcDbLine
 10
0.9243544425508279
 20
0.5200756700202874
 30
0.0
 11
0.9243544425508279
 21
0.5527800035193094
 31
0.0
  0
LINE
  5
29E
330
22
100
AcDbEntity
  8
PAPER
100
AcDbLine
 10
0.9301249151208546
 20
0.5208810760724088
 30
0.0
 11
0.9301249151208532
 21
0.5527800035193094
 31
0.0
  0
LINE
  5
29F
330
22
100
AcDbEntity
  8
PAPER
100
AcDbLine
 10
0.9416658602609027
 20
0.3729614753605472
 30
0.0
 11
0.9416658602609027
 21
0.4105959620656775
 31
0.0
  0
LINE
  5
2A0
330
22
100
AcDbEntity
  8
PAPER
100
AcDbLine
 10
0.9358953876908786
 20
0.3729614753605472
 30
0.0
 11
0.9358953876908786
 21
0.4062247342482993
 31
0.0
  0
LINE
  5
2A1
330
22
100
AcDbEntity
  8
PAPER
100
AcDbLine
 10
0.9301249151208532
 20
0.3729614753605472
 30
0.0
 11
0.9301249151208546
 21
0.4048604028077668
 31
0.0
  0
LINE
  5
2A2
330
22
100
AcDbEntity
  8
PAPER
100
AcDbLine
 10
0.9243544425508279
 20
0.3729614753605472
 30
0.0
 11
0.9243544425508279
 21
0.4056658088599051
 31
0.0
  0
LINE
  5
2A3
330
22
100
AcDbEntity
  8
PAPER
100
AcDbLine
 10
0.9185839699808029
 20
0.3729614753605472
 30
0.0
 11
0.9185839699808029
 21
0.4090805880496243
 31
0.0
  0
LINE
  5
2A4
330
22
100
AcDbEntity
  8
PAPER
100
AcDbLine
 10
0.9128134974107775
 20
0.3729614753605472
 30
0.0
 11
0.9128134974107771
 21
0.5527800035193094
 31
0.0
  0
LINE
  5
2A5
330
22
100
AcDbEntity
  8
PAPER
100
AcDbLine
 10
0.9070430248407534
 20
0.3729614753605472
 30
0.0
 11
0.9070430248407522
 21
0.5527800035193094
 31
0.0
  0
LINE
  5
2A6
330
22
100
AcDbEntity
  8
PAPER
100
AcDbLine
 10
0.9012725522707249
 20
0.3729614753605472
 30
0.0
 11
0.9012725522707249
 21
0.5527800035193094
 31
0.0
  0
LINE
  5
2A7
330
22
100
AcDbEntity
  8
PAPER
100
AcDbLine
 10
0.8955020797007009
 20
0.3729614753605472
 30
0.0
 11
0.8955020797007009
 21
0.5527800035193094
 31
0.0
  0
LINE
  5
2A8
330
22
100
AcDbEntity
  8
PAPER
100
AcDbLine
 10
0.8897316071306756
 20
0.3729614753605472
 30
0.0
 11
0.8897316071306756
 21
0.5527800035193094
 31
0.0
  0
LINE
  5
2A9
330
22
100
AcDbEntity
  8
PAPER
100
AcDbLine
 10
0.883961134560651
 20
0.373355697788363
 30
0.0
 11
0.883961134560651
 21
0.5523857810915257
 31
0.0
  0
LINE
  5
2AA
330
22
100
AcDbEntity
  8
PAPER
100
AcDbLine
 10
0.8781906619906251
 20
0.3746154623381999
 30
0.0
 11
0.8781906619906251
 21
0.5511260165416044
 31
0.0
  0
LINE
  5
2AB
330
22
100
AcDbEntity
  8
PAPER
100
AcDbLine
 10
0.8724201894205998
 20
0.3768320057820051
 30
0.0
 11
0.8724201894205998
 21
0.548909473097887
 31
0.0
  0
LINE
  5
2AC
330
22
100
AcDbEntity
  8
PAPER
100
AcDbLine
 10
0.8666497168505731
 20
0.3801998184520083
 30
0.0
 11
0.8666497168505731
 21
0.5455416604278936
 31
0.0
  0
LINE
  5
2AD
330
22
100
AcDbEntity
  8
PAPER
100
AcDbLine
 10
0.8608792442805494
 20
0.3851359979440543
 30
0.0
 11
0.8608792442805494
 21
0.5406054809358628
 31
0.0
  0
LINE
  5
2AE
330
22
100
AcDbEntity
  8
PAPER
100
AcDbLine
 10
0.855108771710525
 20
0.3927673854812139
 30
0.0
 11
0.8551087717105241
 21
0.5329740933985264
 31
0.0
  0
LINE
  5
2AF
330
22
100
AcDbEntity
  8
PAPER
100
AcDbLine
 10
1.085927674511538
 20
0.3133407931518792
 30
0.0
 11
1.085927674511537
 21
0.5527800035193094
 31
0.0
  0
LINE
  5
2B0
330
22
100
AcDbEntity
  8
PAPER
100
AcDbLine
 10
1.080157201941511
 20
0.3133407931518792
 30
0.0
 11
1.080157201941512
 21
0.5527800035193094
 31
0.0
  0
LINE
  5
2B1
330
22
100
AcDbEntity
  8
PAPER
100
AcDbLine
 10
1.074386729371487
 20
0.3133407931518792
 30
0.0
 11
1.074386729371486
 21
0.5527800035193094
 31
0.0
  0
LINE
  5
2B2
330
22
100
AcDbEntity
  8
PAPER
100
AcDbLine
 10
1.068616256801463
 20
0.3133407931518792
 30
0.0
 11
1.068616256801462
 21
0.5527800035193094
 31
0.0
  0
LINE
  5
2B3
330
22
100
AcDbEntity
  8
PAPER
100
AcDbLine
 10
1.062845784231436
 20
0.3133407931518792
 30
0.0
 11
1.062845784231436
 21
0.5527800035193094
 31
0.0
  0
LINE
  5
2B4
330
22
100
AcDbEntity
  8
PAPER
100
AcDbLine
 10
1.057075311661411
 20
0.3133407931518792
 30
0.0
 11
1.057075311661411
 21
0.5527800035193094
 31
0.0
  0
LINE
  5
2B5
330
22
100
AcDbEntity
  8
PAPER
100
AcDbLine
 10
1.051304839091385
 20
0.3133407931518792
 30
0.0
 11
1.051304839091385
 21
0.5527800035193094
 31
0.0
  0
LINE
  5
2B6
330
22
100
AcDbEntity
  8
PAPER
100
AcDbLine
 10
1.045534366521361
 20
0.3133407931518792
 30
0.0
 11
1.045534366521359
 21
0.5527800035193094
 31
0.0
  0
LINE
  5
2B7
330
22
100
AcDbEntity
  8
PAPER
100
AcDbLine
 10
1.039763893951335
 20
0.3133407931518792
 30
0.0
 11
1.039763893951334
 21
0.5527800035193094
 31
0.0
  0
LWPOLYLINE
  5
2B8
330
22
100
AcDbEntity
  8
PAPER
100
AcDbPolyline
 90
       14
 70
     1
 43
0.0
 10
1.038763925574744
 20
0.5527800035193087
 10
1.03876392557474
 20
0.3133407931518795
 10
1.089379855288469
 20
0.3133407931518795
 10
1.089379855288469
 20
0.3852569655925058
 10
1.092510514459754
 20
0.3827513008486167
 42
0.1813224577874149
 10
1.120383683036873
 20
0.3736313603814156
 10
1.130267325542051
 20
0.3729614753605477
 42
0.4544349447676743
 10
1.170120722740361
 20
0.4128148725588541
 10
1.170120722740361
 20
0.5129266063210015
 42
0.4142135623730878
 10
1.130267325542051
 20
0.5527800035193083
 10
1.120383683036876
 20
0.5527800035193087
 42
0.085164233175497
 10
1.104442324157559
 20
0.5500448987409083
 42
0.0977825579206252
 10
1.088500965278228
 20
0.5406018889892099
 10
1.088500965278228
 20
0.5527800035193087
  0
LINE
  5
2C8
330
22
100
AcDbEntity
  8
PAPER
100
AcDbLine
 10
1.005141058531182
 20
0.3954708746429467
 30
0.0
 11
1.005141058531182
 21
0.5302706042367225
 31
0.0
  0
LINE
  5
2C9
330
22
100
AcDbEntity
  8
PAPER
100
AcDbLine
 10
0.9993705859611578
 20
0.3867069840087784
 30
0.0
 11
0.9993705859611578
 21
0.5390344948709885
 31
0.0
  0
LINE
  5
2CA
330
22
100
AcDbEntity
  8
PAPER
100
AcDbLine
 10
0.9936001133911329
 20
0.3812580552602627
 30
0.0
 11
0.9936001133911325
 21
0.544483423619665
 31
0.0
  0
LINE
  5
2CB
330
22
100
AcDbEntity
  8
PAPER
100
AcDbLine
 10
0.9878296408211067
 20
0.3775523303344543
 30
0.0
 11
0.9878296408211067
 21
0.5481891485453721
 31
0.0
  0
LINE
  5
2CC
330
22
100
AcDbEntity
  8
PAPER
100
AcDbLine
 10
0.982059168251083
 20
0.3750727960013103
 30
0.0
 11
0.9820591682510817
 21
0.5506686828785757
 31
0.0
  0
LINE
  5
2CD
330
22
100
AcDbEntity
  8
PAPER
100
AcDbLine
 10
0.9762886956810554
 20
0.3735862466045752
 30
0.0
 11
0.9762886956810554
 21
0.5521552322751651
 31
0.0
  0
LINE
  5
2CE
330
22
100
AcDbEntity
  8
PAPER
100
AcDbLine
 10
0.9705182231110313
 20
0.3729813547844605
 30
0.0
 11
0.9705182231110313
 21
0.552760124095406
 31
0.0
  0
LINE
  5
2CF
330
22
100
AcDbEntity
  8
PAPER
100
AcDbLine
 10
0.9647477505410051
 20
0.3729614753605472
 30
0.0
 11
0.9647477505410051
 21
0.5527800035193094
 31
0.0
  0
LINE
  5
2D0
330
22
100
AcDbEntity
  8
PAPER
100
AcDbLine
 10
0.9589772779709806
 20
0.3729614753605472
 30
0.0
 11
0.9589772779709793
 21
0.5527800035193094
 31
0.0
  0
LINE
  5
2D1
330
22
100
AcDbEntity
  8
PAPER
100
AcDbLine
 10
0.9532068054009556
 20
0.3729614753605472
 30
0.0
 11
0.9532068054009556
 21
0.5527800035193094
 31
0.0
  0
LINE
  5
2D2
330
22
100
AcDbEntity
  8
PAPER
100
AcDbLine
 10
0.9474363328309298
 20
0.3729614753605472
 30
0.0
 11
0.9474363328309298
 21
0.5527800035193094
 31
0.0
  0
LINE
  5
2D3
330
22
100
AcDbEntity
  8
PAPER
100
AcDbLine
 10
1.114780037361662
 20
0.5062165957140559
 30
0.0
 11
1.114780037361662
 21
0.5524505735420105
 31
0.0
  0
LINE
  5
2D4
330
22
100
AcDbEntity
  8
PAPER
100
AcDbLine
 10
1.103239092221613
 20
0.5136216100974148
 30
0.0
 11
1.103239092221613
 21
0.5496012548793717
 31
0.0
  0
LINE
  5
2D5
330
22
100
AcDbEntity
  8
PAPER
100
AcDbLine
 10
1.109009564791637
 20
0.5120051728320288
 30
0.0
 11
1.109009564791638
 21
0.5514077485938954
 31
0.0
  0
LINE
  5
2D6
330
22
100
AcDbEntity
  8
PAPER
100
AcDbLine
 10
1.091698147081564
 20
0.5085818423503062
 30
0.0
 11
1.091698147081564
 21
0.543221869091571
 31
0.0
  0
LINE
  5
2D7
330
22
100
AcDbEntity
  8
PAPER
100
AcDbLine
 10
1.09746861965159
 20
0.5127242929656618
 30
0.0
 11
1.097468619651589
 21
0.5469326129858912
 31
0.0
  0
LINE
  5
2D8
330
22
100
AcDbEntity
  8
PAPER
100
AcDbLine
 10
1.166714290491893
 20
0.3945030082581915
 30
0.0
 11
1.166714290491893
 21
0.5290483932627267
 31
0.0
  0
LINE
  5
2D9
330
22
100
AcDbEntity
  8
PAPER
100
AcDbLine
 10
1.160943817921867
 20
0.3856434272371085
 30
0.0
 11
1.160943817921867
 21
0.5383676378157574
 31
0.0
  0
LINE
  5
2DA
330
22
100
AcDbEntity
  8
PAPER
100
AcDbLine
 10
1.155173345351841
 20
0.3803058821927008
 30
0.0
 11
1.155173345351842
 21
0.5440390386509629
 31
0.0
  0
LINE
  5
2DB
330
22
100
AcDbEntity
  8
PAPER
100
AcDbLine
 10
1.149402872781816
 20
0.3767634869824137
 30
0.0
 11
1.149402872781816
 21
0.5478854978949615
 31
0.0
  0
LINE
  5
2DC
330
22
100
AcDbEntity
  8
PAPER
100
AcDbLine
 10
1.143632400211791
 20
0.3744794151308122
 30
0.0
 11
1.143632400211791
 21
0.550472152625712
 31
0.0
  0
LINE
  5
2DD
330
22
100
AcDbEntity
  8
PAPER
100
AcDbLine
 10
1.137861927641765
 20
0.3732203046739746
 30
0.0
 11
1.137861927641765
 21
0.5520496850240305
 31
0.0
  0
LINE
  5
2DE
330
22
100
AcDbEntity
  8
PAPER
100
AcDbLine
 10
1.13209145507174
 20
0.3728825001730855
 30
0.0
 11
1.13209145507174
 21
0.5527382355228115
 31
0.0
  0
LINE
  5
2DF
330
22
100
AcDbEntity
  8
PAPER
100
AcDbLine
 10
1.126320982501715
 20
0.3732289472049153
 30
0.0
 11
1.126320982501715
 21
0.5527800035193085
 31
0.0
  0
LINE
  5
2E0
330
22
100
AcDbEntity
  8
PAPER
100
AcDbLine
 10
1.12055050993169
 20
0.3736200533316258
 30
0.0
 11
1.12055050993169
 21
0.5527800035193085
 31
0.0
  0
LINE
  5
2E1
330
22
100
AcDbEntity
  8
PAPER
100
AcDbLine
 10
1.114780037361662
 20
0.3737693774901458
 30
0.0
 11
1.114780037361662
 21
0.4195248831656978
 31
0.0
  0
LINE
  5
2E2
330
22
100
AcDbEntity
  8
PAPER
100
AcDbLine
 10
1.109009564791638
 20
0.374711492745728
 30
0.0
 11
1.109009564791637
 21
0.413736306047788
 31
0.0
  0
LINE
  5
2E3
330
22
100
AcDbEntity
  8
PAPER
100
AcDbLine
 10
1.103239092221613
 20
0.3765241585887995
 30
0.0
 11
1.103239092221613
 21
0.4121198687824064
 31
0.0
  0
LINE
  5
2E4
330
22
100
AcDbEntity
  8
PAPER
100
AcDbLine
 10
1.097468619651589
 20
0.3793385658356045
 30
0.0
 11
1.09746861965159
 21
0.4130171859141426
 31
0.0
  0
LINE
  5
2E5
330
22
100
AcDbEntity
  8
PAPER
100
AcDbLine
 10
1.091698147081564
 20
0.3834014898941989
 30
0.0
 11
1.091698147081564
 21
0.4171596365294742
 31
0.0
  0
LWPOLYLINE
  5
2E6
330
22
100
AcDbEntity
  8
PAPER
100
AcDbPolyline
 90
        4
 70
     1
 43
0.0
 10
1.116398343317045
 20
0.426046200428692
 10
1.116398343317048
 20
0.4996952784511639
 42
1.000000000000026
 10
1.088500965278228
 20
0.4996952784511639
 10
1.088500965278228
 20
0.426046200428692
 42
0.9999999999999998
  0
LWPOLYLINE
  5
2EC
330
22
100
AcDbEntity
  8
PAPER
100
AcDbPolyline
 90
       11
 70
     1
 43
0.0
 10
1.496892326062627
 20
0.5524611763417231
 10
1.538684940030307
 20
0.5524611763417231
 10
1.47832378001591
 20
0.3612812631982389
 42
-0.3272249499159052
 10
1.440319618096905
 20
0.3334269053398247
 10
1.379271351237073
 20
0.3334269053398247
 10
1.379271351237077
 20
0.3531941903501854
 10
1.416400195556034
 20
0.3531941903501854
 42
0.500425742919699
 10
1.431697805839234
 20
0.3736199714378292
 10
1.37927135123708
 20
0.5524611763417231
 10
1.420801844924441
 20
0.5524611763417231
 10
1.457435914654356
 20
0.4274921846227587
  0
LINE
  5
2F9
330
22
100
AcDbEntity
  8
PAPER
100
AcDbLine
 10
1.426385556143035
 20
0.3334269053398244
 30
0.0
 11
1.426385556143035
 21
0.356708985067719
 31
0.0
  0
LINE
  5
2FA
330
22
100
AcDbEntity
  8
PAPER
100
AcDbLine
 10
1.420615083573007
 20
0.3334269053398244
 30
0.0
 11
1.420615083573008
 21
0.3537614917972822
 31
0.0
  0
LINE
  5
2FB
330
22
100
AcDbEntity
  8
PAPER
100
AcDbLine
 10
1.414844611002982
 20
0.3334269053398244
 30
0.0
 11
1.414844611002982
 21
0.3531941903501854
 31
0.0
  0
LINE
  5
2FC
330
22
100
AcDbEntity
  8
PAPER
100
AcDbLine
 10
1.409074138432958
 20
0.3334269053398244
 30
0.0
 11
1.409074138432958
 21
0.3531941903501854
 31
0.0
  0
LINE
  5
2FD
330
22
100
AcDbEntity
  8
PAPER
100
AcDbLine
 10
1.403303665862932
 20
0.3334269053398244
 30
0.0
 11
1.403303665862931
 21
0.3531941903501854
 31
0.0
  0
LINE
  5
2FE
330
22
100
AcDbEntity
  8
PAPER
100
AcDbLine
 10
1.397533193292907
 20
0.3334269053398244
 30
0.0
 11
1.397533193292907
 21
0.3531941903501854
 31
0.0
  0
LINE
  5
2FF
330
22
100
AcDbEntity
  8
PAPER
100
AcDbLine
 10
1.391762720722881
 20
0.3334269053398244
 30
0.0
 11
1.39176272072288
 21
0.3531941903501854
 31
0.0
  0
LINE
  5
300
330
22
100
AcDbEntity
  8
PAPER
100
AcDbLine
 10
1.385992248152857
 20
0.3334269053398244
 30
0.0
 11
1.385992248152856
 21
0.3531941903501854
 31
0.0
  0
LINE
  5
301
330
22
100
AcDbEntity
  8
PAPER
100
AcDbLine
 10
1.38022177558283
 20
0.3334269053398244
 30
0.0
 11
1.380221775582829
 21
0.3531941903501854
 31
0.0
  0
LWPOLYLINE
  5
302
330
22
100
AcDbEntity
  8
PAPER
100
AcDbPolyline
 90
       17
 70
     1
 43
0.0
 10
1.295738630709426
 20
0.3732803025381342
 10
1.359504066226716
 20
0.3732803025381322
 10
1.35950406622672
 20
0.5126077791434152
 42
0.4142135623730996
 10
1.319650669028414
 20
0.552461176341722
 10
1.239943874631795
 20
0.5524611763417231
 42
0.3563939586927657
 10
1.200895679570868
 20
0.5205784585830566
 10
1.200895679570913
 20
0.5008111735727168
 10
1.263855912950778
 20
0.5008111735727168
 10
1.263855912950778
 20
0.5205784585830769
 10
1.295738630709426
 20
0.5205784585830769
 10
1.295738630709426
 20
0.4940481662509573
 10
1.223550682378897
 20
0.4550019875673489
 42
0.2561579178272127
 10
1.200090477433492
 20
0.4186762870785018
 10
1.200090477433492
 20
0.4131336997364419
 42
0.4142135623730949
 10
1.239943874631795
 20
0.3732803025381342
 10
1.263855912950778
 20
0.3732803025381348
 42
0.3566469110183342
 10
1.295100180665887
 20
0.3988145223150423
  0
LINE
  5
315
330
22
100
AcDbEntity
  8
PAPER
100
AcDbLine
 10
1.29366468703245
 20
0.4667081515446839
 30
0.0
 11
1.29366468703245
 21
0.4929263782342071
 31
0.0
  0
LINE
  5
316
330
22
100
AcDbEntity
  8
PAPER
100
AcDbLine
 10
1.276353269322374
 20
0.4687602077781364
 30
0.0
 11
1.276353269322374
 21
0.4835627001576509
 31
0.0
  0
LINE
  5
317
330
22
100
AcDbEntity
  8
PAPER
100
AcDbLine
 10
1.282123741892401
 20
0.4715561523690378
 30
0.0
 11
1.282123741892401
 21
0.4866839261831702
 31
0.0
  0
LINE
  5
318
330
22
100
AcDbEntity
  8
PAPER
100
AcDbLine
 10
1.287894214462424
 20
0.4710911479496545
 30
0.0
 11
1.287894214462425
 21
0.4898051522086887
 31
0.0
  0
LINE
  5
319
330
22
100
AcDbEntity
  8
PAPER
100
AcDbLine
 10
1.29366468703245
 20
0.5205784585830767
 30
0.0
 11
1.29366468703245
 21
0.5524611763417225
 31
0.0
  0
LINE
  5
31A
330
22
100
AcDbEntity
  8
PAPER
100
AcDbLine
 10
1.287894214462425
 20
0.5205784585830767
 30
0.0
 11
1.287894214462425
 21
0.5524611763417225
 31
0.0
  0
LINE
  5
31B
330
22
100
AcDbEntity
  8
PAPER
100
AcDbLine
 10
1.270582796752349
 20
0.5205784585830767
 30
0.0
 11
1.27058279675235
 21
0.5524611763417225
 31
0.0
  0
LINE
  5
31C
330
22
100
AcDbEntity
  8
PAPER
100
AcDbLine
 10
1.276353269322376
 20
0.5205784585830767
 30
0.0
 11
1.276353269322374
 21
0.5524611763417225
 31
0.0
  0
LINE
  5
31D
330
22
100
AcDbEntity
  8
PAPER
100
AcDbLine
 10
1.282123741892401
 20
0.5205784585830767
 30
0.0
 11
1.2821237418924
 21
0.5524611763417225
 31
0.0
  0
LINE
  5
31E
330
22
100
AcDbEntity
  8
PAPER
100
AcDbLine
 10
1.253271379042273
 20
0.5008111735727166
 30
0.0
 11
1.253271379042273
 21
0.5524611763417234
 31
0.0
  0
LINE
  5
31F
330
22
100
AcDbEntity
  8
PAPER
100
AcDbLine
 10
1.264812324182323
 20
0.5205784585830767
 30
0.0
 11
1.264812324182322
 21
0.5524611763417225
 31
0.0
  0
LINE
  5
320
330
22
100
AcDbEntity
  8
PAPER
100
AcDbLine
 10
1.259041851612298
 20
0.5008111735727166
 30
0.0
 11
1.259041851612298
 21
0.5524611763417225
 31
0.0
  0
LINE
  5
321
330
22
100
AcDbEntity
  8
PAPER
100
AcDbLine
 10
1.235959961332196
 20
0.5008111735727166
 30
0.0
 11
1.235959961332196
 21
0.5522615520163646
 31
0.0
  0
LINE
  5
322
330
22
100
AcDbEntity
  8
PAPER
100
AcDbLine
 10
1.247500906472249
 20
0.5008111735727166
 30
0.0
 11
1.247500906472248
 21
0.5524611763417234
 31
0.0
  0
LINE
  5
323
330
22
100
AcDbEntity
  8
PAPER
100
AcDbLine
 10
1.241730433902222
 20
0.5008111735727166
 30
0.0
 11
1.241730433902222
 21
0.5524611763417234
 31
0.0
  0
LINE
  5
324
330
22
100
AcDbEntity
  8
PAPER
100
AcDbLine
 10
1.218648543622122
 20
0.5008111735727166
 30
0.0
 11
1.218648543622121
 21
0.5462946036515167
 31
0.0
  0
LINE
  5
325
330
22
100
AcDbEntity
  8
PAPER
100
AcDbLine
 10
1.224419016192147
 20
0.5008111735727166
 30
0.0
 11
1.224419016192147
 21
0.5493129836609637
 31
0.0
  0
LINE
  5
326
330
22
100
AcDbEntity
  8
PAPER
100
AcDbLine
 10
1.230189488762171
 20
0.5008111735727166
 30
0.0
 11
1.230189488762171
 21
0.5512490165014013
 31
0.0
  0
LINE
  5
327
330
22
100
AcDbEntity
  8
PAPER
100
AcDbLine
 10
1.201337125912043
 20
0.5008111735727166
 30
0.0
 11
1.201337125912044
 21
0.5224977852874363
 31
0.0
  0
LINE
  5
328
330
22
100
AcDbEntity
  8
PAPER
100
AcDbLine
 10
1.207107598482069
 20
0.5008111735727166
 30
0.0
 11
1.20710759848207
 21
0.5351925580190516
 31
0.0
  0
LINE
  5
329
330
22
100
AcDbEntity
  8
PAPER
100
AcDbLine
 10
1.212878071052095
 20
0.5008111735727166
 30
0.0
 11
1.212878071052095
 21
0.5418607370250753
 31
0.0
  0
LINE
  5
32A
330
22
100
AcDbEntity
  8
PAPER
100
AcDbLine
 10
1.305205632172501
 20
0.3732803025381342
 30
0.0
 11
1.305205632172501
 21
0.5524611763417225
 31
0.0
  0
LINE
  5
32B
330
22
100
AcDbEntity
  8
PAPER
100
AcDbLine
 10
1.299435159602477
 20
0.3732803025381342
 30
0.0
 11
1.299435159602475
 21
0.5524611763417225
 31
0.0
  0
LINE
  5
32C
330
22
100
AcDbEntity
  8
PAPER
100
AcDbLine
 10
1.293664687032449
 20
0.3938517569086384
 30
0.0
 11
1.29366468703245
 21
0.4117227115912535
 31
0.0
  0
LINE
  5
32D
330
22
100
AcDbEntity
  8
PAPER
100
AcDbLine
 10
1.287894214462425
 20
0.3842186236207439
 30
0.0
 11
1.287894214462424
 21
0.407339715186329
 31
0.0
  0
LINE
  5
32E
330
22
100
AcDbEntity
  8
PAPER
100
AcDbLine
 10
1.282123741892401
 20
0.379032690841379
 30
0.0
 11
1.282123741892401
 21
0.4068747107669493
 31
0.0
  0
LINE
  5
32F
330
22
100
AcDbEntity
  8
PAPER
100
AcDbLine
 10
1.276353269322374
 20
0.3758317438941174
 30
0.0
 11
1.276353269322374
 21
0.4096706553578285
 31
0.0
  0
LINE
  5
330
330
22
100
AcDbEntity
  8
PAPER
100
AcDbLine
 10
1.270582796752349
 20
0.3739980283024227
 30
0.0
 11
1.27058279675235
 21
0.4804414741321315
 31
0.0
  0
LINE
  5
331
330
22
100
AcDbEntity
  8
PAPER
100
AcDbLine
 10
1.264812324182323
 20
0.3732946508806278
 30
0.0
 11
1.264812324182322
 21
0.4773202481066122
 31
0.0
  0
LINE
  5
332
330
22
100
AcDbEntity
  8
PAPER
100
AcDbLine
 10
1.259041851612298
 20
0.3732803025381342
 30
0.0
 11
1.259041851612298
 21
0.4741990220810937
 31
0.0
  0
LINE
  5
333
330
22
100
AcDbEntity
  8
PAPER
100
AcDbLine
 10
1.253271379042273
 20
0.3732803025381342
 30
0.0
 11
1.253271379042273
 21
0.4710777960555744
 31
0.0
  0
LINE
  5
334
330
22
100
AcDbEntity
  8
PAPER
100
AcDbLine
 10
1.247500906472248
 20
0.3732803025381342
 30
0.0
 11
1.247500906472249
 21
0.4679565700300559
 31
0.0
  0
LINE
  5
335
330
22
100
AcDbEntity
  8
PAPER
100
AcDbLine
 10
1.241730433902221
 20
0.3732803025381342
 30
0.0
 11
1.24173043390222
 21
0.4648353440045357
 31
0.0
  0
LINE
  5
336
330
22
100
AcDbEntity
  8
PAPER
100
AcDbLine
 10
1.235959961332196
 20
0.3734799268633269
 30
0.0
 11
1.235959961332195
 21
0.4617141179790173
 31
0.0
  0
LINE
  5
337
330
22
100
AcDbEntity
  8
PAPER
100
AcDbLine
 10
1.230189488762171
 20
0.3744924623784367
 30
0.0
 11
1.230189488762171
 21
0.4585928919534979
 31
0.0
  0
LINE
  5
338
330
22
100
AcDbEntity
  8
PAPER
100
AcDbLine
 10
1.224419016192147
 20
0.3764284952188237
 30
0.0
 11
1.224419016192147
 21
0.4554716659279795
 31
0.0
  0
LINE
  5
339
330
22
100
AcDbEntity
  8
PAPER
100
AcDbLine
 10
1.218648543622121
 20
0.37944687522834
 30
0.0
 11
1.218648543622122
 21
0.4519271817389744
 31
0.0
  0
LINE
  5
33A
330
22
100
AcDbEntity
  8
PAPER
100
AcDbLine
 10
1.212878071052095
 20
0.3838807418546126
 30
0.0
 11
1.212878071052094
 21
0.4469750218450262
 31
0.0
  0
LINE
  5
33B
330
22
100
AcDbEntity
  8
PAPER
100
AcDbLine
 10
1.207107598482069
 20
0.3905489208606176
 30
0.0
 11
1.207107598482069
 21
0.4397500811894373
 31
0.0
  0
LINE
  5
33C
330
22
100
AcDbEntity
  8
PAPER
100
AcDbLine
 10
1.201337125912044
 20
0.4032436935918041
 30
0.0
 11
1.201337125912043
 21
0.4264327884905129
 31
0.0
  0
LWPOLYLINE
  5
33D
330
22
100
AcDbEntity
  8
PAPER
100
AcDbPolyline
 90
        4
 70
     1
 43
0.0
 10
1.295718974745186
 20
0.4183177358485317
 10
1.295718974745186
 20
0.4601131272875233
 42
0.9999999999999998
 10
1.272492217045953
 20
0.4601131272875233
 10
1.272492217045953
 20
0.4183177358485317
 42
1.000000000000047
  0
LINE
  5
343
330
22
100
AcDbEntity
  8
PAPER
100
AcDbLine
 10
1.426385556143036
 20
0.3917415313187778
 30
0.0
 11
1.426385556143033
 21
0.5334135857742009
 31
0.0
  0
LINE
  5
344
330
22
100
AcDbEntity
  8
PAPER
100
AcDbLine
 10
1.420615083573008
 20
0.4114262167532593
 30
0.0
 11
1.420615083573008
 21
0.5524611763417234
 31
0.0
  0
LINE
  5
345
330
22
100
AcDbEntity
  8
PAPER
100
AcDbLine
 10
1.409074138432958
 20
0.4507955876222017
 30
0.0
 11
1.409074138432958
 21
0.5524611763417234
 31
0.0
  0
LINE
  5
346
330
22
100
AcDbEntity
  8
PAPER
100
AcDbLine
 10
1.414844611002983
 20
0.4311109021877309
 30
0.0
 11
1.414844611002983
 21
0.5524611763417234
 31
0.0
  0
LINE
  5
347
330
22
100
AcDbEntity
  8
PAPER
100
AcDbLine
 10
1.403303665862932
 20
0.4704802730566814
 30
0.0
 11
1.403303665862934
 21
0.5524611763417234
 31
0.0
  0
LINE
  5
348
330
22
100
AcDbEntity
  8
PAPER
100
AcDbLine
 10
1.397533193292907
 20
0.4901649584911583
 30
0.0
 11
1.397533193292907
 21
0.5524611763417234
 31
0.0
  0
LINE
  5
349
330
22
100
AcDbEntity
  8
PAPER
100
AcDbLine
 10
1.385992248152856
 20
0.5295343293601088
 30
0.0
 11
1.385992248152857
 21
0.5524611763417234
 31
0.0
  0
LINE
  5
34A
330
22
100
AcDbEntity
  8
PAPER
100
AcDbLine
 10
1.391762720722881
 20
0.5098496439256362
 30
0.0
 11
1.391762720722881
 21
0.5524611763417234
 31
0.0
  0
LINE
  5
34B
330
22
100
AcDbEntity
  8
PAPER
100
AcDbLine
 10
1.38022177558283
 20
0.5492190147945867
 30
0.0
 11
1.380221775582831
 21
0.5524611763417234
 31
0.0
  0
LINE
  5
34C
330
22
100
AcDbEntity
  8
PAPER
100
AcDbLine
 10
1.357139885302729
 20
0.3732803025381324
 30
0.0
 11
1.357139885302729
 21
0.5261300545205117
 31
0.0
  0
LINE
  5
34D
330
22
100
AcDbEntity
  8
PAPER
100
AcDbLine
 10
1.351369412732704
 20
0.3732803025381324
 30
0.0
 11
1.351369412732704
 21
0.536736901921884
 31
0.0
  0
LINE
  5
34E
330
22
100
AcDbEntity
  8
PAPER
100
AcDbLine
 10
1.345598940162679
 20
0.3732803025381324
 30
0.0
 11
1.345598940162679
 21
0.542856423631714
 31
0.0
  0
LINE
  5
34F
330
22
100
AcDbEntity
  8
PAPER
100
AcDbLine
 10
1.339828467592653
 20
0.3732803025381324
 30
0.0
 11
1.339828467592653
 21
0.5469756378683613
 31
0.0
  0
LINE
  5
350
330
22
100
AcDbEntity
  8
PAPER
100
AcDbLine
 10
1.334057995022629
 20
0.3732803025381324
 30
0.0
 11
1.334057995022629
 21
0.5497658499482022
 31
0.0
  0
LINE
  5
351
330
22
100
AcDbEntity
  8
PAPER
100
AcDbLine
 10
1.328287522452602
 20
0.3732803025381333
 30
0.0
 11
1.328287522452602
 21
0.5515140515318916
 31
0.0
  0
LINE
  5
352
330
22
100
AcDbEntity
  8
PAPER
100
AcDbLine
 10
1.322517049882577
 20
0.3732803025381333
 30
0.0
 11
1.322517049882577
 21
0.5523579631560212
 31
0.0
  0
LINE
  5
353
330
22
100
AcDbEntity
  8
PAPER
100
AcDbLine
 10
1.316746577312552
 20
0.3732803025381333
 30
0.0
 11
1.316746577312551
 21
0.5524611763417225
 31
0.0
  0
LINE
  5
354
330
22
100
AcDbEntity
  8
PAPER
100
AcDbLine
 10
1.310976104742527
 20
0.3732803025381342
 30
0.0
 11
1.310976104742527
 21
0.5524611763417225
 31
0.0
  0
LINE
  5
355
330
22
100
AcDbEntity
  8
PAPER
100
AcDbLine
 10
1.443696973853109
 20
0.3335702693432709
 30
0.0
 11
1.443696973853109
 21
0.4743595294707779
 31
0.0
  0
LINE
  5
356
330
22
100
AcDbEntity
  8
PAPER
100
AcDbLine
 10
1.449467446423135
 20
0.3344909933775575
 30
0.0
 11
1.449467446423136
 21
0.4546748440363027
 31
0.0
  0
LINE
  5
357
330
22
100
AcDbEntity
  8
PAPER
100
AcDbLine
 10
1.455237918993159
 20
0.3363244157728322
 30
0.0
 11
1.455237918993159
 21
0.434990158601832
 31
0.0
  0
LINE
  5
358
330
22
100
AcDbEntity
  8
PAPER
100
AcDbLine
 10
1.461008391563187
 20
0.3392175968220312
 30
0.0
 11
1.461008391563184
 21
0.4388071730188433
 31
0.0
  0
LINE
  5
359
330
22
100
AcDbEntity
  8
PAPER
100
AcDbLine
 10
1.46677886413321
 20
0.3434775917984794
 30
0.0
 11
1.466778864133209
 21
0.4570838006461269
 31
0.0
  0
LINE
  5
35A
330
22
100
AcDbEntity
  8
PAPER
100
AcDbLine
 10
1.472549336703235
 20
0.3498380648719495
 30
0.0
 11
1.472549336703237
 21
0.4753604282734159
 31
0.0
  0
LINE
  5
35B
330
22
100
AcDbEntity
  8
PAPER
100
AcDbLine
 10
1.478319809273261
 20
0.3612686940363037
 30
0.0
 11
1.47831980927326
 21
0.4936370559007023
 31
0.0
  0
LINE
  5
35C
330
22
100
AcDbEntity
  8
PAPER
100
AcDbLine
 10
1.437926501283085
 20
0.3334269053398244
 30
0.0
 11
1.437926501283083
 21
0.4940442149052523
 31
0.0
  0
LINE
  5
35D
330
22
100
AcDbEntity
  8
PAPER
100
AcDbLine
 10
1.432156028713059
 20
0.3334269053398244
 30
0.0
 11
1.43215602871306
 21
0.5137289003397293
 31
0.0
  0
LINE
  5
35E
330
22
100
AcDbEntity
  8
PAPER
100
AcDbLine
 10
1.536024534973513
 20
0.5440349630687658
 30
0.0
 11
1.536024534973513
 21
0.5524611763417234
 31
0.0
  0
LINE
  5
35F
330
22
100
AcDbEntity
  8
PAPER
100
AcDbLine
 10
1.530254062403488
 20
0.5257583354414786
 30
0.0
 11
1.530254062403488
 21
0.5524611763417234
 31
0.0
  0
LINE
  5
360
330
22
100
AcDbEntity
  8
PAPER
100
AcDbLine
 10
1.484090281843287
 20
0.3795453144231791
 30
0.0
 11
1.484090281843287
 21
0.5119136835279904
 31
0.0
  0
LINE
  5
361
330
22
100
AcDbEntity
  8
PAPER
100
AcDbLine
 10
1.489860754413312
 20
0.3978219420504663
 30
0.0
 11
1.489860754413312
 21
0.5301903111552776
 31
0.0
  0
LINE
  5
362
330
22
100
AcDbEntity
  8
PAPER
100
AcDbLine
 10
1.495631226983337
 20
0.4160985696777536
 30
0.0
 11
1.495631226983337
 21
0.548466938782563
 31
0.0
  0
LINE
  5
363
330
22
100
AcDbEntity
  8
PAPER
100
AcDbLine
 10
1.501401699553362
 20
0.4343751973050417
 30
0.0
 11
1.501401699553362
 21
0.5524611763417234
 31
0.0
  0
LINE
  5
364
330
22
100
AcDbEntity
  8
PAPER
100
AcDbLine
 10
1.507172172123388
 20
0.4526518249323289
 30
0.0
 11
1.507172172123389
 21
0.5524611763417234
 31
0.0
  0
LINE
  5
365
330
22
100
AcDbEntity
  8
PAPER
100
AcDbLine
 10
1.512942644693415
 20
0.4709284525596223
 30
0.0
 11
1.512942644693415
 21
0.5524611763417234
 31
0.0
  0
LINE
  5
366
330
22
100
AcDbEntity
  8
PAPER
100
AcDbLine
 10
1.518713117263439
 20
0.4892050801869095
 30
0.0
 11
1.518713117263439
 21
0.5524611763417234
 31
0.0
  0
LINE
  5
367
330
22
100
AcDbEntity
  8
PAPER
100
AcDbLine
 10
1.524483589833462
 20
0.5074817078141914
 30
0.0
 11
1.524483589833462
 21
0.5524611763417234
 31
0.0
  0
ENDBLK
  5
368
330
22
100
AcDbEntity
  8
0
100
AcDbBlockEnd
  0
ENDSEC
  0
SECTION
  2
ENTITIES
  0
TEXT
  5
369
330
17
100
AcDbEntity
  8
PAPER
100
AcDbText
 10
0.2856234612991413
 20
4.53971285995411
 30
0.0
 40
0.07
  1
%%uNOTE:
  7
ARIAL1
100
AcDbText
  0
LINE
  5
36D
330
17
100
AcDbEntity
  8
SL-TRACK
100
AcDbLine
 10
7.159235240762344
 20
6.208516817017382
 30
0.0
 11
7.171382481765524
 21
6.204649038592642
 31
0.0
  0
LINE
  5
36E
330
17
100
AcDbEntity
  8
SL-TRACK
100
AcDbLine
 10
6.954950333997677
 20
6.169607117322946
 30
0.0
 11
6.967698477938355
 21
6.169607117322946
 31
0.0
  0
LINE
  5
36F
330
17
100
AcDbEntity
  8
SL-TRACK
100
AcDbLine
 10
7.115268577732205
 20
6.028799129343003
 30
0.0
 11
7.911594919357274
 21
6.028799129343002
 31
0.0
  0
LINE
  5
370
330
17
100
AcDbEntity
  8
SL-TRACK
100
AcDbLine
 10
7.125324293335165
 20
6.060255633845697
 30
0.0
 11
7.911594919357274
 21
6.060255633845698
 31
0.0
  0
LINE
  5
371
330
17
100
AcDbEntity
  8
SL-TRACK
100
AcDbLine
 10
7.145412310248683
 20
6.123168642851088
 30
0.0
 11
7.911594919357274
 21
6.123168642851088
 31
0.0
  0
LINE
  5
372
330
17
100
AcDbEntity
  8
SL-TRACK
100
AcDbLine
 10
6.967698477938355
 20
6.123168642851088
 30
0.0
 11
7.132030992130591
 21
6.123168642851088
 31
0.0
  0
LINE
  5
373
330
17
100
AcDbEntity
  8
SL-TRACK
100
AcDbLine
 10
6.967698477938355
 20
6.060255633845697
 30
0.0
 11
7.111941051138739
 21
6.060255633845697
 31
0.0
  0
LINE
  5
374
330
17
100
AcDbEntity
  8
SL-TRACK
100
AcDbLine
 10
6.967698477938355
 20
6.028799129343002
 30
0.0
 11
7.1018843721675
 21
6.028799129343003
 31
0.0
  0
LWPOLYLINE
  5
375
330
17
100
AcDbEntity
  8
SL-TRACK
100
AcDbPolyline
 90
        4
 70
     1
 43
0.0
 10
9.682093031941921
 20
6.340544780604576
 10
9.699165935626027
 20
6.340544780604576
 10
9.699165935626027
 20
6.387216110553524
 10
9.682093031941921
 20
6.387216110553524
  0
LWPOLYLINE
  5
37B
330
17
100
AcDbEntity
  8
SL-TRACK
100
AcDbPolyline
 90
        4
 70
     1
 43
0.0
 10
9.682093031941921
 20
6.206222416361264
 10
9.699165935626027
 20
6.206222416361264
 10
9.699165935626027
 20
6.252893746310211
 10
9.682093031941921
 20
6.252893746310211
  0
LINE
  5
381
330
17
100
AcDbEntity
  8
SL-TRACK
100
AcDbLine
 10
9.61344206725256
 20
6.185732564188555
 30
0.0
 11
9.720634204413119
 21
6.185732564188555
 31
0.0
  0
LINE
  5
382
330
17
100
AcDbEntity
  8
SL-TRACK
100
AcDbLine
 10
9.615420489204471
 20
6.406567637605526
 30
0.0
 11
9.720634204413119
 21
6.406567637605526
 31
0.0
  0
LINE
  5
383
330
17
100
AcDbEntity
  8
PAPER
100
AcDbLine
 10
9.286339367721106
 20
1.294717702823786
 30
0.0
 11
9.682029867771598
 21
1.294717702823786
 31
0.0
  0
LINE
  5
384
330
17
100
AcDbEntity
  8
PAPER
100
AcDbLine
 10
8.114877213047323
 20
0.7032209775701041
 30
0.0
 11
8.114877213047323
 21
1.451384578369171
 31
0.0
  0
TEXT
  5
385
330
17
100
AcDbEntity
  8
PAPER
100
AcDbText
 10
8.149588515711995
 20
1.308596491047623
 30
0.0
 40
0.06
  1
OVERHEAD CLEARANCE:
  7
ARIAL1
100
AcDbText
  0
INSERT
  5
386
330
17
100
AcDbEntity
  8
PAPER
100
AcDbBlockReference
  2
RECT
 10
2.871189085008086
 20
2.038562490625394
 30
0.0
 41
0.09375
 42
0.09375
 43
0.09375
  0
INSERT
  5
387
330
17
100
AcDbEntity
  8
PAPER
100
AcDbBlockReference
  2
RECT
 10
2.871189085008086
 20
2.173765339779084
 30
0.0
 41
0.09375
 42
0.09375
 43
0.09375
  0
INSERT
  5
388
330
17
100
AcDbEntity
  8
PAPER
100
AcDbBlockReference
  2
RECT
 10
2.871189085008086
 20
2.308502049862574
 30
0.0
 41
0.09375
 42
0.09375
 43
0.09375
  0
INSERT
  5
389
330
17
100
AcDbEntity
  8
PAPER
100
AcDbBlockReference
  2
RECT
 10
2.871189085008086
 20
2.447807823585849
 30
0.0
 41
0.09375
 42
0.09375
 43
0.09375
  0
TEXT
  5
38A
330
17
100
AcDbEntity
  8
PAPER
100
AcDbText
 10
3.001466978046704
 20
2.048345373007439
 30
0.0
 40
0.07
  1
100,000 CYCLE
  7
ARIAL1
100
AcDbText
  0
TEXT
  5
38B
330
17
100
AcDbEntity
  8
PAPER
100
AcDbText
 10
3.001466978046704
 20
2.184686711443855
 30
0.0
 40
0.07
  1
50,000 CYCLE
  7
ARIAL1
100
AcDbText
  0
TEXT
  5
38C
330
17
100
AcDbEntity
  8
PAPER
100
AcDbText
 10
3.001466978046704
 20
2.323312581700165
 30
0.0
 40
0.07
  1
25,000 CYCLE
  7
ARIAL1
100
AcDbText
  0
TEXT
  5
38D
330
17
100
AcDbEntity
  8
PAPER
100
AcDbText
 10
3.001466978046704
 20
2.461006173816073
 30
0.0
 40
0.07
  1
10,000 CYCLE
  7
ARIAL1
100
AcDbText
  0
LINE
  5
38E
330
17
100
AcDbEntity
  8
DEFPOINTS
  6
CENTER
100
AcDbLine
 10
-0.5
 20
0.0
 30
0.0
 11
0.5
 21
0.0
 31
0.0
  0
LINE
  5
38F
330
17
100
AcDbEntity
  8
DEFPOINTS
  6
CENTER
100
AcDbLine
 10
0.0
 20
-0.5
 30
0.0
 11
0.0
 21
0.5
 31
0.0
  0
LINE
  5
390
330
17
100
AcDbEntity
  8
DEFPOINTS
  6
CENTER
100
AcDbLine
 10
11.0
 20
-0.5
 30
0.0
 11
11.0
 21
0.5
 31
0.0
  0
LINE
  5
391
330
17
100
AcDbEntity
  8
DEFPOINTS
  6
CENTER
100
AcDbLine
 10
10.5
 20
0.0
 30
0.0
 11
11.5
 21
0.0
 31
0.0
  0
LINE
  5
392
330
17
100
AcDbEntity
  8
DEFPOINTS
  6
CENTER
100
AcDbLine
 10
0.0
 20
8.0
 30
0.0
 11
0.0
 21
9.0
 31
0.0
  0
LINE
  5
393
330
17
100
AcDbEntity
  8
DEFPOINTS
  6
CENTER
100
AcDbLine
 10
-0.5
 20
8.5
 30
0.0
 11
0.5
 21
8.5
 31
0.0
  0
LINE
  5
394
330
17
100
AcDbEntity
  8
DEFPOINTS
  6
CENTER
100
AcDbLine
 10
11.0
 20
8.0
 30
0.0
 11
11.0
 21
9.0
 31
0.0
  0
LINE
  5
395
330
17
100
AcDbEntity
  8
DEFPOINTS
  6
CENTER
100
AcDbLine
 10
10.5
 20
8.5
 30
0.0
 11
11.5
 21
8.5
 31
0.0
  0
LINE
  5
396
330
17
100
AcDbEntity
  8
PAPER
100
AcDbLine
 10
0.1822000000000003
 20
1.452554581608635
 30
0.0
 11
10.82409243843734
 21
1.452554581608635
 31
0.0
  0
LINE
  5
397
330
17
100
AcDbEntity
  8
PAPER
100
AcDbLine
 10
0.1822000000000003
 20
1.459754581608635
 30
0.0
 11
10.82409243843734
 21
1.459754581608635
 31
0.0
  0
LINE
  5
398
330
17
100
AcDbEntity
  8
PAPER
100
AcDbLine
 10
0.1822000000000003
 20
1.445354581608635
 30
0.0
 11
10.82409243843734
 21
1.445354581608635
 31
0.0
  0
TEXT
  5
399
330
17
100
AcDbEntity
  8
PAPER
100
AcDbText
 10
9.754628690630267
 20
1.299227480808007
 30
0.0
 40
0.1008811405475445
  1
SHEET `T-1'
  7
ROMANT
 72
     2
 11
10.76344009610571
 21
1.299227480808007
 31
0.0
100
AcDbText
  0
LWPOLYLINE
  5
39B
330
17
100
AcDbEntity
  8
PAPER
100
AcDbPolyline
 90
        4
 70
     1
 43
0.0
 10
0.175
 20
0.7025545816086356
 10
10.825
 20
0.7025545816086356
 10
10.825
 20
8.325000000000001
 10
0.175
 20
8.325000000000001
  0
LWPOLYLINE
  5
3A1
330
17
100
AcDbEntity
  8
PAPER
100
AcDbPolyline
 90
        4
 70
     1
 43
0.0
 10
0.1678
 20
0.6953545816086355
 10
10.8322
 20
0.6953545816086355
 10
10.8322
 20
8.3322
 10
0.1678
 20
8.332199999999998
  0
LWPOLYLINE
  5
3A7
330
17
100
AcDbEntity
  8
PAPER
100
AcDbPolyline
 90
        4
 70
     1
 43
0.0
 10
0.1822
 20
0.7097545816086356
 10
10.8178
 20
0.7097545816086356
 10
10.8178
 20
8.3178
 10
0.1822
 20
8.3178
  0
LINE
  5
3AD
330
17
100
AcDbEntity
  8
PAPER
100
AcDbLine
 10
1.816379037511768
 20
1.450848394725808
 30
0.0
 11
1.816379037511768
 21
0.703389328930927
 31
0.0
  0
LINE
  5
3AE
330
17
100
AcDbEntity
  8
PAPER
100
AcDbLine
 10
1.823579037511768
 20
1.450848394725808
 30
0.0
 11
1.823579037511768
 21
0.703389328930927
 31
0.0
  0
LINE
  5
3AF
330
17
100
AcDbEntity
  8
PAPER
100
AcDbLine
 10
1.830779037511768
 20
1.450848394725808
 30
0.0
 11
1.830779037511768
 21
0.703389328930927
 31
0.0
  0
TEXT
  5
3B0
330
17
100
AcDbEntity
  8
PAPER
100
AcDbText
 10
1.856528287060573
 20
1.331705791458405
 30
0.0
 40
0.06
  1
CUST:
  7
ARIAL1
100
AcDbText
  0
TEXT
  5
3B1
330
17
100
AcDbEntity
  8
PAPER
100
AcDbText
 10
1.856528287060573
 20
1.143687870924253
 30
0.0
 40
0.06
  1
JOB:
  7
ARIAL1
100
AcDbText
  0
TEXT
  5
3B2
330
17
100
AcDbEntity
  8
PAPER
100
AcDbText
 10
1.856528287060573
 20
0.9436878709242538
 30
0.0
 40
0.06
  1
ARCH:
  7
ARIAL1
100
AcDbText
  0
TEXT
  5
3B3
330
17
100
AcDbEntity
  8
PAPER
100
AcDbText
 10
1.856528287060573
 20
0.7586654702565643
 30
0.0
 40
0.06
  1
CONT:
  7
ARIAL1
100
AcDbText
  0
LINE
  5
3B4
330
17
100
AcDbEntity
  8
PAPER
100
AcDbLine
 10
1.823198686172374
 20
1.273217580632297
 30
0.0
 11
4.194280654796743
 21
1.273217580632297
 31
0.0
  0
LINE
  5
3B5
330
17
100
AcDbEntity
  8
PAPER
100
AcDbLine
 10
1.823198686172374
 20
1.072517749579336
 30
0.0
 11
4.194280654796743
 21
1.072517749579336
 31
0.0
  0
LINE
  5
3B6
330
17
100
AcDbEntity
  8
PAPER
100
AcDbLine
 10
1.823198686172374
 20
0.8748134383928379
 30
0.0
 11
4.194280654796743
 21
0.8748134383928379
 31
0.0
  0
TEXT
  5
3B7
330
17
100
AcDbEntity
  8
PAPER
100
AcDbText
 10
4.45371635016141
 20
1.308596491047623
 30
0.0
 40
0.06
  1
STANDARD-LIFT
  7
ARIAL1
100
AcDbText
  0
TEXT
  5
3B8
330
17
100
AcDbEntity
  8
PAPER
100
AcDbText
 10
4.223756660742261
 20
1.042584681627082
 30
0.0
 40
0.06
  1
OPENING SIZE:              '            " W  x               '           " H
  7
ARIAL1
100
AcDbText
  0
TEXT
  5
3B9
330
17
100
AcDbEntity
  8
PAPER
100
AcDbText
 10
4.223756660742261
 20
0.7703681178433886
 30
0.0
 40
0.06
  1
DOOR SIZE:             '           " W  x                '          " H
  7
ARIAL1
100
AcDbText
  0
LINE
  5
3BA
330
17
100
AcDbEntity
  8
PAPER
100
AcDbLine
 10
4.194280654796743
 20
0.703220977570104
 30
0.0
 11
4.194280654796743
 21
1.451384578369171
 31
0.0
  0
LINE
  5
3BB
330
17
100
AcDbEntity
  8
PAPER
100
AcDbLine
 10
4.792204446103157
 20
0.7523282409430157
 30
0.0
 11
5.000177938731475
 21
0.7523282409430157
 31
0.0
  0
LINE
  5
3BC
330
17
100
AcDbEntity
  8
PAPER
100
AcDbLine
 10
5.057948353350452
 20
0.7523282409430157
 30
0.0
 11
5.26592184597877
 21
0.7523282409430157
 31
0.0
  0
LINE
  5
3BD
330
17
100
AcDbEntity
  8
PAPER
100
AcDbLine
 10
5.667426227580661
 20
0.7523282409430157
 30
0.0
 11
5.875399720208979
 21
0.7523282409430157
 31
0.0
  0
LINE
  5
3BE
330
17
100
AcDbEntity
  8
PAPER
100
AcDbLine
 10
5.927393093366059
 20
0.7523282409430157
 30
0.0
 11
6.135366585994376
 21
0.7523282409430157
 31
0.0
  0
LINE
  5
3BF
330
17
100
AcDbEntity
  8
PAPER
100
AcDbLine
 10
4.953961607036293
 20
1.023862520769704
 30
0.0
 11
5.161935099664611
 21
1.023862520769704
 31
0.0
  0
LINE
  5
3C0
330
17
100
AcDbEntity
  8
PAPER
100
AcDbLine
 10
5.219705514283588
 20
1.023862520769704
 30
0.0
 11
5.427679006911906
 21
1.023862520769704
 31
0.0
  0
LINE
  5
3C1
330
17
100
AcDbEntity
  8
PAPER
100
AcDbLine
 10
5.829183388513797
 20
1.023862520769704
 30
0.0
 11
6.037156881142115
 21
1.023862520769704
 31
0.0
  0
LINE
  5
3C2
330
17
100
AcDbEntity
  8
PAPER
100
AcDbLine
 10
6.089150254299195
 20
1.023862520769704
 30
0.0
 11
6.297123746927512
 21
1.023862520769704
 31
0.0
  0
LINE
  5
3C3
330
17
100
AcDbEntity
  8
PAPER
100
AcDbLine
 10
4.194280654796743
 20
0.9718665948454448
 30
0.0
 11
6.476212032246341
 21
0.9718665948454448
 31
0.0
  0
LINE
  5
3C4
330
17
100
AcDbEntity
  8
PAPER
100
AcDbLine
 10
4.194280654796743
 20
1.220291574261351
 30
0.0
 11
6.476212032246341
 21
1.220291574261351
 31
0.0
  0
TEXT
  5
3C5
330
17
100
AcDbEntity
  8
PAPER
100
AcDbText
 10
5.51540647010974
 20
1.308596491047623
 30
0.0
 40
0.06
  1
TRACK SIZE:
  7
ARIAL1
100
AcDbText
  0
LINE
  5
3C6
330
17
100
AcDbEntity
  8
PAPER
100
AcDbLine
 10
5.491388172557653
 20
1.220291574261351
 30
0.0
 11
5.491388172557653
 21
1.448495915817824
 31
0.0
  0
LINE
  5
3C7
330
17
100
AcDbEntity
  8
PAPER
100
AcDbLine
 10
6.476212032246341
 20
0.703220977570104
 30
0.0
 11
6.476212032246341
 21
1.451384578369171
 31
0.0
  0
LINE
  5
3C8
330
17
100
AcDbEntity
  8
PAPER
100
AcDbLine
 10
9.720672100203822
 20
0.703220977570104
 30
0.0
 11
9.720672100203822
 21
1.451384578369171
 31
0.0
  0
TEXT
  5
3C9
330
17
100
AcDbEntity
  8
PAPER
100
AcDbText
 10
9.747462189139126
 20
1.1388944204903
 30
0.0
 40
0.06
  1
DATE:
  7
ARIAL1
100
AcDbText
  0
TEXT
  5
3CA
330
17
100
AcDbEntity
  8
PAPER
100
AcDbText
 10
9.747462189139126
 20
0.9710759945290829
 30
0.0
 40
0.06
  1
BID #:
  7
ARIAL1
100
AcDbText
  0
TEXT
  5
3CB
330
17
100
AcDbEntity
  8
PAPER
100
AcDbText
 10
9.747462189139126
 20
0.7872985691572679
 30
0.0
 40
0.06
  1
PAGE            of
  7
ARIAL1
100
AcDbText
  0
LINE
  5
3CC
330
17
100
AcDbEntity
  8
PAPER
100
AcDbLine
 10
9.990759978771821
 20
0.7467590064013324
 30
0.0
 11
10.21649918849977
 21
0.7467590064013324
 31
0.0
  0
LINE
  5
3CD
330
17
100
AcDbEntity
  8
PAPER
100
AcDbLine
 10
10.38523354728631
 20
0.7467590064013324
 30
0.0
 11
10.61097275701426
 21
0.7467590064013324
 31
0.0
  0
LINE
  5
3CE
330
17
100
AcDbEntity
  8
PAPER
100
AcDbLine
 10
10.04662171562477
 20
0.9451065705044733
 30
0.0
 11
10.75148652302675
 21
0.9451065705044733
 31
0.0
  0
LINE
  5
3CF
330
17
100
AcDbEntity
  8
PAPER
100
AcDbLine
 10
10.01138684236564
 20
1.106976421669105
 30
0.0
 11
10.75376671706441
 21
1.106976421669105
 31
0.0
  0
TEXT
  5
3D0
330
17
100
AcDbEntity
  8
SL-TRACK
100
AcDbText
 10
5.548669233663158
 20
5.05341950894166
 30
0.0
 40
0.07
  1
%%USPRING BUMPER:
  7
ARIAL2
100
AcDbText
  0
LINE
  5
3D1
330
17
100
AcDbEntity
  8
SL-TRACK
100
AcDbLine
 10
7.0816192837285
 20
6.071274462743441
 30
0.0
 11
6.967698477938355
 21
6.071274462743441
 31
0.0
  0
LINE
  5
3D2
330
17
100
AcDbEntity
  8
SL-TRACK
100
AcDbLine
 10
7.0816192837285
 20
6.119594127168441
 30
0.0
 11
7.0816192837285
 21
6.071274462743441
 31
0.0
  0
LINE
  5
3D3
330
17
100
AcDbEntity
  8
SL-TRACK
100
AcDbLine
 10
6.967698477938355
 20
6.119594127168441
 30
0.0
 11
7.0816192837285
 21
6.119594127168441
 31
0.0
  0
LWPOLYLINE
  5
3D4
330
17
100
AcDbEntity
  8
SL-TRACK
100
AcDbPolyline
 90
        4
 70
     0
 43
0.0
 10
6.967698477938355
 20
6.169607117322946
 10
6.967698477938355
 20
5.950236095421412
 42
0.8557839920306282
 10
7.071529834247043
 20
5.934000236578442
 42
0.0004912296420222
 10
7.159235240762344
 20
6.208516817017382
 42
0.0004912296420222
  0
LWPOLYLINE
  5
3DA
330
17
100
AcDbEntity
  8
SL-TRACK
100
AcDbPolyline
 90
        4
 70
     0
 43
0.0
 10
6.954950333997677
 20
6.169607117322946
 10
6.954950333997677
 20
5.950236095421412
 42
0.855783992030626
 10
7.083669451936426
 20
5.930108597298128
 42
0.0004912296420222
 10
7.171382481765524
 20
6.204649038592642
 42
0.1553612620775308
  0
POINT
  5
3E0
330
17
100
AcDbEntity
  8
SL-TRACK
100
AcDbPoint
 10
7.05365254009333
 20
6.095008807557799
 30
0.0
  0
POINT
  5
3E1
330
17
100
AcDbEntity
  8
SL-TRACK
100
AcDbPoint
 10
6.997485717787115
 20
6.095008807557799
 30
0.0
  0
TEXT
  5
3E2
330
17
100
AcDbEntity
  8
SL-TRACK
100
AcDbText
 10
4.164572326030949
 20
5.82841883515588
 30
0.0
 40
0.07
  1
%%uTROLLEY OPERATOR:
  7
ARIAL2
100
AcDbText
  0
LWPOLYLINE
  5
3E3
330
17
100
AcDbEntity
  8
SL-TRACK
  6
HIDDEN
100
AcDbPolyline
 90
        6
 70
     0
 43
0.0
 10
9.721522770888167
 20
6.644949625981696
 10
5.444277374735029
 20
6.644949625981696
 10
5.444277374735029
 20
6.15301581442343
 10
6.354424442898708
 20
6.15301581442343
 10
6.354424442898708
 20
6.558861208959004
 10
9.720634204413119
 20
6.558861208959004
  0
LINE
  5
3EB
330
17
100
AcDbEntity
  8
SL-TRACK
100
AcDbLine
 10
9.574615119003468
 20
5.452481600834183
 30
0.0
 11
9.576540126413636
 21
5.400652001727133
 31
0.0
  0
LINE
  5
3EC
330
17
100
AcDbEntity
  8
SL-TRACK
100
AcDbLine
 10
6.788345665682158
 20
6.668776939888249
 30
0.0
 11
6.788345665682159
 21
6.644949625981698
 31
0.0
  0
LINE
  5
3ED
330
17
100
AcDbEntity
  8
SL-TRACK
100
AcDbLine
 10
6.788345665682158
 20
6.060255633845698
 30
0.0
 11
6.954950333997677
 21
6.060255633845697
 31
0.0
  0
LINE
  5
3EE
330
17
100
AcDbEntity
  8
SL-TRACK
100
AcDbLine
 10
6.788345665682158
 20
6.123168642851088
 30
0.0
 11
6.954950333997677
 21
6.123168642851088
 31
0.0
  0
LINE
  5
3EF
330
17
100
AcDbEntity
  8
SL-TRACK
100
AcDbLine
 10
6.860904681088213
 20
6.123168642851088
 30
0.0
 11
6.860904681088213
 21
6.558861208959004
 31
0.0
  0
LINE
  5
3F0
330
17
100
AcDbEntity
  8
SL-TRACK
100
AcDbLine
 10
6.777020669081026
 20
6.668776939888249
 30
0.0
 11
6.777020669081026
 21
6.644949625981698
 31
0.0
  0
LINE
  5
3F1
330
17
100
AcDbEntity
  8
SL-TRACK
100
AcDbLine
 10
9.720634204413119
 20
7.172081011931374
 30
0.0
 11
9.720634204413119
 21
7.444694007290062
 31
0.0
  0
LINE
  5
3F2
330
17
100
AcDbEntity
  8
SL-TRACK
100
AcDbLine
 10
9.720634204413119
 20
7.172081011931374
 30
0.0
 11
9.720634204413119
 21
7.444694007290062
 31
0.0
  0
LINE
  5
3F3
330
17
100
AcDbEntity
  8
SL-TRACK
100
AcDbLine
 10
9.977752804015967
 20
6.384999845339568
 30
0.0
 11
9.866477359922143
 21
6.496275289433325
 31
0.0
  0
LINE
  5
3F4
330
17
100
AcDbEntity
  8
SL-TRACK
100
AcDbLine
 10
7.998561006506769
 20
6.028799129343002
 30
0.0
 11
8.853045642308806
 21
6.028799129343002
 31
0.0
  0
LINE
  5
3F5
330
17
100
AcDbEntity
  8
SL-TRACK
100
AcDbLine
 10
7.998561006506769
 20
6.060255633845698
 30
0.0
 11
8.853045642308806
 21
6.060255633845698
 31
0.0
  0
LINE
  5
3F6
330
17
100
AcDbEntity
  8
SL-TRACK
100
AcDbLine
 10
7.998561006506769
 20
6.123168642851088
 30
0.0
 11
9.720634204413119
 21
6.123168642851088
 31
0.0
  0
LINE
  5
3F7
330
17
100
AcDbEntity
  8
SL-TRACK
100
AcDbLine
 10
7.911594919357274
 20
6.268447175994082
 30
0.0
 11
7.911594919357274
 21
5.890969121961737
 31
0.0
  0
LINE
  5
3F8
330
17
100
AcDbEntity
  8
SL-TRACK
100
AcDbLine
 10
7.998561006506769
 20
6.268447175994082
 30
0.0
 11
7.998561006506769
 21
5.890969121961737
 31
0.0
  0
LINE
  5
3F9
330
17
100
AcDbEntity
  8
SL-TRACK
100
AcDbLine
 10
6.777020669081026
 20
6.028799129343002
 30
0.0
 11
6.954950333997677
 21
6.028799129343002
 31
0.0
  0
LINE
  5
3FA
330
17
100
AcDbEntity
  8
SL-TRACK
100
AcDbLine
 10
9.191192905190458
 20
6.0392846308439
 30
0.0
 11
9.720634204413119
 21
6.0392846308439
 31
0.0
  0
ARC
  5
3FB
330
17
100
AcDbEntity
  8
SL-TRACK
100
AcDbCircle
 10
8.853045642308806
 20
5.399669039289094
 30
0.0
 40
0.6605865945566022
100
AcDbArc
 50
0.0284204532935864
 51
90.0
  0
ARC
  5
3FC
330
17
100
AcDbEntity
  8
SL-TRACK
100
AcDbCircle
 10
8.853045642308806
 20
5.399669039289094
 30
0.0
 40
0.7234996035619928
100
AcDbArc
 50
4.186084651620097
 51
90.0
  0
ARC
  5
3FD
330
17
100
AcDbEntity
  8
SL-TRACK
100
AcDbCircle
 10
8.853045642308806
 20
5.399669039289094
 30
0.0
 40
0.6291300900539069
100
AcDbArc
 50
0.000000000000007
 51
90.0
  0
POINT
  5
3FE
330
17
100
AcDbEntity
  8
SL-TRACK
100
AcDbPoint
 10
9.482175732362712
 20
5.399669039289094
 30
0.0
  0
LINE
  5
3FF
330
17
100
AcDbEntity
  8
SL-TRACK
100
AcDbLine
 10
9.652478444657283
 20
6.038158690072592
 30
0.0
 11
9.720634204413123
 21
6.038158690072592
 31
0.0
  0
LINE
  5
400
330
17
100
AcDbEntity
  8
SL-TRACK
100
AcDbLine
 10
10.05617025244187
 20
1.634248059695244
 30
0.0
 11
10.05617025244187
 21
7.452470618583608
 31
0.0
  0
LINE
  5
401
330
17
100
AcDbEntity
  8
SL-TRACK
100
AcDbLine
 10
9.720634204413119
 20
1.634248059695244
 30
0.0
 11
9.720634204413119
 21
7.088196999924186
 31
0.0
  0
LINE
  5
402
330
17
100
AcDbEntity
  8
SL-TRACK
100
AcDbLine
 10
10.05617025244187
 20
5.660680636040249
 30
0.0
 11
9.720634204413119
 21
5.660680636040249
 31
0.0
  0
LINE
  5
403
330
17
100
AcDbEntity
  8
SL-TRACK
100
AcDbLine
 10
9.521057357689251
 20
1.667033007941342
 30
0.0
 11
9.482175732362712
 21
5.399669039289094
 31
0.0
  0
LINE
  5
404
330
17
100
AcDbEntity
  8
SL-TRACK
100
AcDbLine
 10
9.552512155706224
 20
1.667360662087347
 30
0.0
 11
9.513630530379685
 21
5.3999966934351
 31
0.0
  0
LINE
  5
405
330
17
100
AcDbEntity
  8
SL-TRACK
100
AcDbLine
 10
9.576540126413636
 20
5.400652001727133
 30
0.0
 11
9.482175732362712
 21
5.399669039289094
 31
0.0
  0
LINE
  5
406
330
17
100
AcDbEntity
  8
SL-TRACK
100
AcDbLine
 10
9.615421751740175
 20
1.668015970379433
 30
0.0
 11
9.521057357689251
 21
1.667033007941342
 31
0.0
  0
LINE
  5
407
330
17
100
AcDbEntity
  8
SL-TRACK
100
AcDbLine
 10
9.720634204413123
 20
1.634248059695244
 30
0.0
 11
9.720634204413123
 21
6.038158690072592
 31
0.0
  0
LINE
  5
408
330
17
100
AcDbEntity
  8
SL-TRACK
100
AcDbLine
 10
9.65247844465728
 20
1.634248059695244
 30
0.0
 11
9.652478444657283
 21
1.715510696327207
 31
0.0
  0
LINE
  5
409
330
17
100
AcDbEntity
  8
SL-TRACK
100
AcDbLine
 10
9.720634204413123
 20
1.634248059695244
 30
0.0
 11
9.65247844465728
 21
1.634248059695244
 31
0.0
  0
LINE
  5
40A
330
17
100
AcDbEntity
  8
SL-TRACK
100
AcDbLine
 10
9.585436542040277
 20
4.546596101569789
 30
0.0
 11
9.712770078287451
 21
4.546596101569789
 31
0.0
  0
LINE
  5
40B
330
17
100
AcDbEntity
  8
SL-TRACK
100
AcDbLine
 10
9.586528781779954
 20
4.441741086560804
 30
0.0
 11
9.712770078287451
 21
4.441741086560804
 31
0.0
  0
LINE
  5
40C
330
17
100
AcDbEntity
  8
SL-TRACK
100
AcDbLine
 10
9.712770078287451
 20
4.546596101569789
 30
0.0
 11
9.712770078287451
 21
4.441741086560804
 31
0.0
  0
LINE
  5
40D
330
17
100
AcDbEntity
  8
SL-TRACK
100
AcDbLine
 10
9.713529062765456
 20
5.452481600834251
 30
0.0
 11
9.713529062765456
 21
5.347626585825266
 31
0.0
  0
LINE
  5
40E
330
17
100
AcDbEntity
  8
SL-TRACK
100
AcDbLine
 10
9.577092474495948
 20
5.347626585825266
 30
0.0
 11
9.713529062765456
 21
5.347626585825266
 31
0.0
  0
LINE
  5
40F
330
17
100
AcDbEntity
  8
SL-TRACK
100
AcDbLine
 10
9.574615119003468
 20
5.452481600834246
 30
0.0
 11
9.713529062765456
 21
5.452481600834251
 31
0.0
  0
LINE
  5
410
330
17
100
AcDbEntity
  8
SL-TRACK
100
AcDbLine
 10
9.712770078287451
 20
3.833581999508694
 30
0.0
 11
9.712770078287451
 21
3.728726984499709
 31
0.0
  0
LINE
  5
411
330
17
100
AcDbEntity
  8
SL-TRACK
100
AcDbLine
 10
9.593956012009755
 20
3.728726984499709
 30
0.0
 11
9.712770078287451
 21
3.728726984499709
 31
0.0
  0
LINE
  5
412
330
17
100
AcDbEntity
  8
SL-TRACK
100
AcDbLine
 10
9.592863772270078
 20
3.833581999508694
 30
0.0
 11
9.712770078287451
 21
3.833581999508694
 31
0.0
  0
LINE
  5
413
330
17
100
AcDbEntity
  8
SL-TRACK
100
AcDbLine
 10
9.712770078287451
 20
2.826973855422443
 30
0.0
 11
9.712770078287444
 21
2.722118840413458
 31
0.0
  0
LINE
  5
414
330
17
100
AcDbEntity
  8
SL-TRACK
100
AcDbLine
 10
9.604441513510654
 20
2.722118840413458
 30
0.0
 11
9.712770078287444
 21
2.722118840413458
 31
0.0
  0
LINE
  5
415
330
17
100
AcDbEntity
  8
SL-TRACK
100
AcDbLine
 10
9.603349273770977
 20
2.826973855422443
 30
0.0
 11
9.712770078287451
 21
2.826973855422443
 31
0.0
  0
LINE
  5
416
330
17
100
AcDbEntity
  8
SL-TRACK
100
AcDbLine
 10
9.712770078287451
 20
1.820365711336192
 30
0.0
 11
9.712770078287444
 21
1.715510696327207
 31
0.0
  0
LINE
  5
417
330
17
100
AcDbEntity
  8
SL-TRACK
100
AcDbLine
 10
9.614927015011552
 20
1.715510696327207
 30
0.0
 11
9.712770078287444
 21
1.715510696327207
 31
0.0
  0
LINE
  5
418
330
17
100
AcDbEntity
  8
SL-TRACK
100
AcDbLine
 10
9.613834775271872
 20
1.820365711336192
 30
0.0
 11
9.712770078287451
 21
1.820365711336192
 31
0.0
  0
LINE
  5
419
330
17
100
AcDbEntity
  8
SL-TRACK
100
AcDbLine
 10
9.65247844465728
 20
5.452481600834251
 30
0.0
 11
9.652478444657283
 21
6.038158690072592
 31
0.0
  0
LINE
  5
41A
330
17
100
AcDbEntity
  8
SL-TRACK
100
AcDbLine
 10
9.652478444657283
 20
4.546596101569789
 30
0.0
 11
9.652478444657283
 21
5.347626585825266
 31
0.0
  0
LINE
  5
41B
330
17
100
AcDbEntity
  8
SL-TRACK
100
AcDbLine
 10
9.652478444657283
 20
3.833581999508694
 30
0.0
 11
9.652478444657283
 21
4.441741086560804
 31
0.0
  0
LINE
  5
41C
330
17
100
AcDbEntity
  8
SL-TRACK
100
AcDbLine
 10
9.652478444657283
 20
2.826973855422443
 30
0.0
 11
9.652478444657283
 21
3.728726984499709
 31
0.0
  0
LINE
  5
41D
330
17
100
AcDbEntity
  8
SL-TRACK
100
AcDbLine
 10
9.65247844465728
 20
1.820365711336192
 30
0.0
 11
9.652478444657283
 21
2.722118840413458
 31
0.0
  0
LINE
  5
41E
330
17
100
AcDbEntity
  8
SL-TRACK
100
AcDbLine
 10
9.615421751740175
 20
1.668015970379433
 30
0.0
 11
9.576540126413636
 21
5.400652001727133
 31
0.0
  0
LINE
  5
41F
330
17
100
AcDbEntity
  8
SL-TRACK
100
AcDbLine
 10
10.05617025244187
 20
6.662472119254194
 30
0.0
 11
9.720634204413119
 21
6.998008167282944
 31
0.0
  0
LINE
  5
420
330
17
100
AcDbEntity
  8
SL-TRACK
100
AcDbLine
 10
10.05617025244187
 20
6.840416980424396
 30
0.0
 11
9.808390232942073
 21
7.088196999924186
 31
0.0
  0
LINE
  5
421
330
17
100
AcDbEntity
  8
SL-TRACK
100
AcDbLine
 10
10.05617025244187
 20
7.018361841594598
 30
0.0
 11
9.720634204413119
 21
7.353897889623348
 31
0.0
  0
LINE
  5
422
330
17
100
AcDbEntity
  8
SL-TRACK
100
AcDbLine
 10
10.05617025244187
 20
7.196306702764876
 30
0.0
 11
9.807782947916653
 21
7.444694007290062
 31
0.0
  0
LINE
  5
423
330
17
100
AcDbEntity
  8
SL-TRACK
100
AcDbLine
 10
10.05617025244187
 20
7.374251563935154
 30
0.0
 11
9.985727809086903
 21
7.444694007290062
 31
0.0
  0
LINE
  5
424
330
17
100
AcDbEntity
  8
SL-TRACK
100
AcDbLine
 10
10.04442222109239
 20
6.496275289433325
 30
0.0
 11
9.720634204413119
 21
6.820063306112666
 31
0.0
  0
LINE
  5
425
330
17
100
AcDbEntity
  8
SL-TRACK
100
AcDbLine
 10
10.05617025244187
 20
6.306582396913637
 30
0.0
 11
9.977752804015967
 21
6.384999845339568
 31
0.0
  0
LINE
  5
426
330
17
100
AcDbEntity
  8
SL-TRACK
100
AcDbLine
 10
10.05617025244187
 20
6.128637535743359
 30
0.0
 11
9.720634204413123
 21
6.464173583772109
 31
0.0
  0
LINE
  5
427
330
17
100
AcDbEntity
  8
SL-TRACK
100
AcDbLine
 10
10.05617025244187
 20
5.950692674573157
 30
0.0
 11
9.720634204413119
 21
6.286228722601907
 31
0.0
  0
LINE
  5
428
330
17
100
AcDbEntity
  8
SL-TRACK
100
AcDbLine
 10
10.05617025244187
 20
5.772747813402953
 30
0.0
 11
9.720634204413119
 21
6.108283861431705
 31
0.0
  0
LINE
  5
429
330
17
100
AcDbEntity
  8
SL-TRACK
100
AcDbLine
 10
9.990292568634281
 20
5.660680636040249
 30
0.0
 11
9.720634204413119
 21
5.930339000261425
 31
0.0
  0
LINE
  5
42A
330
17
100
AcDbEntity
  8
SL-TRACK
100
AcDbLine
 10
9.812347707464031
 20
5.660680636040249
 30
0.0
 11
9.720634204413119
 21
5.752394139091147
 31
0.0
  0
LINE
  5
42B
330
17
100
AcDbEntity
  8
SL-TRACK
100
AcDbLine
 10
9.866477359922143
 20
6.496275289433325
 30
0.0
 11
9.720634204413119
 21
6.642118444942387
 31
0.0
  0
CIRCLE
  5
42C
330
17
100
AcDbEntity
  8
SL-TRACK
100
AcDbCircle
 10
9.502432286412737
 20
6.297153479846632
 30
0.0
 40
0.0209710030017969
  0
CIRCLE
  5
42D
330
17
100
AcDbEntity
  8
SL-TRACK
100
AcDbCircle
 10
9.502432286412737
 20
6.297153479846632
 30
0.0
 40
0.1572825225134767
  0
LINE
  5
42E
330
17
100
AcDbEntity
  8
SL-TRACK
100
AcDbLine
 10
9.444268025901219
 20
6.668776939888249
 30
0.0
 11
6.597139858950296
 21
6.668776939888249
 31
0.0
  0
LINE
  5
42F
330
17
100
AcDbEntity
  8
SL-TRACK
100
AcDbLine
 10
9.444268025901219
 20
6.752660951895436
 30
0.0
 11
6.597139858950296
 21
6.752660951895436
 31
0.0
  0
LINE
  5
430
330
17
100
AcDbEntity
  8
SL-TRACK
100
AcDbLine
 10
9.232290126612756
 20
6.787406847335025
 30
0.0
 11
9.533080279201861
 21
7.088196999924186
 31
0.0
  0
LINE
  5
431
330
17
100
AcDbEntity
  8
SL-TRACK
100
AcDbLine
 10
9.316174138619945
 20
6.752660951895436
 30
0.0
 11
9.651710186648696
 21
7.088196999924186
 31
0.0
  0
LINE
  5
432
330
17
100
AcDbEntity
  8
SL-TRACK
100
AcDbLine
 10
9.14840611460557
 20
6.752660951895436
 30
0.0
 11
8.81287006657682
 21
7.088196999924186
 31
0.0
  0
LINE
  5
433
330
17
100
AcDbEntity
  8
SL-TRACK
100
AcDbLine
 10
9.267036022052398
 20
6.752660951895436
 30
0.0
 11
8.931499974023648
 21
7.088196999924186
 31
0.0
  0
LINE
  5
434
330
17
100
AcDbEntity
  8
SL-TRACK
100
AcDbLine
 10
8.462941797420167
 20
6.787406847335101
 30
0.0
 11
8.763731950009272
 21
7.088196999924186
 31
0.0
  0
LINE
  5
435
330
17
100
AcDbEntity
  8
SL-TRACK
100
AcDbLine
 10
8.546825809427353
 20
6.752660951895436
 30
0.0
 11
8.847615962016458
 21
7.053451104484598
 31
0.0
  0
LINE
  5
436
330
17
100
AcDbEntity
  8
SL-TRACK
100
AcDbLine
 10
8.379057785412978
 20
6.752660951895436
 30
0.0
 11
8.043521737384228
 21
7.088196999924186
 31
0.0
  0
LINE
  5
437
330
17
100
AcDbEntity
  8
SL-TRACK
100
AcDbLine
 10
8.497687692859809
 20
6.752660951895436
 30
0.0
 11
8.162151644831059
 21
7.088196999924186
 31
0.0
  0
LINE
  5
438
330
17
100
AcDbEntity
  8
SL-TRACK
100
AcDbLine
 10
7.693593468227577
 20
6.787406847335101
 30
0.0
 11
7.994383620816681
 21
7.088196999924186
 31
0.0
  0
LINE
  5
439
330
17
100
AcDbEntity
  8
SL-TRACK
100
AcDbLine
 10
7.777477480234766
 20
6.752660951895436
 30
0.0
 11
8.07826763282387
 21
7.053451104484598
 31
0.0
  0
LINE
  5
43A
330
17
100
AcDbEntity
  8
SL-TRACK
100
AcDbLine
 10
7.609709456220391
 20
6.752660951895436
 30
0.0
 11
7.27417340819164
 21
7.088196999924186
 31
0.0
  0
LINE
  5
43B
330
17
100
AcDbEntity
  8
SL-TRACK
100
AcDbLine
 10
7.728339363667222
 20
6.752660951895436
 30
0.0
 11
7.392803315638473
 21
7.088196999924186
 31
0.0
  0
LINE
  5
43C
330
17
100
AcDbEntity
  8
SL-TRACK
100
AcDbLine
 10
6.924245139034989
 20
6.787406847335101
 30
0.0
 11
7.225035291624098
 21
7.088196999924186
 31
0.0
  0
LINE
  5
43D
330
17
100
AcDbEntity
  8
SL-TRACK
100
AcDbLine
 10
7.008129151042177
 20
6.752660951895436
 30
0.0
 11
7.308919303631285
 21
7.053451104484598
 31
0.0
  0
LINE
  5
43E
330
17
100
AcDbEntity
  8
SL-TRACK
100
AcDbLine
 10
6.840361127027802
 20
6.752660951895436
 30
0.0
 11
6.504825078999055
 21
7.088196999924186
 31
0.0
  0
LINE
  5
43F
330
17
100
AcDbEntity
  8
SL-TRACK
100
AcDbLine
 10
6.958991034474634
 20
6.752660951895436
 30
0.0
 11
6.623454986445884
 21
7.088196999924186
 31
0.0
  0
LINE
  5
440
330
17
100
AcDbEntity
  8
SL-TRACK
100
AcDbLine
 10
6.322985952630964
 20
7.172081011931374
 30
0.0
 11
9.847637226920998
 21
7.172081011931374
 31
0.0
  0
LINE
  5
441
330
17
100
AcDbEntity
  8
SL-TRACK
100
AcDbLine
 10
6.413435179935984
 20
7.088196999924186
 30
0.0
 11
9.847637226920998
 21
7.088196999924186
 31
0.0
  0
LINE
  5
442
330
17
100
AcDbEntity
  8
SL-TRACK
100
AcDbLine
 10
9.847637226920998
 20
7.088196999924186
 30
0.0
 11
9.847637226920998
 21
7.172081011931374
 31
0.0
  0
LINE
  5
443
330
17
100
AcDbEntity
  8
SL-TRACK
100
AcDbLine
 10
9.444268025901219
 20
6.752660951895436
 30
0.0
 11
9.444268025901219
 21
6.668776939888249
 31
0.0
  0
POINT
  5
444
330
17
100
AcDbEntity
  8
SL-TRACK
100
AcDbPoint
 10
9.584268229700754
 20
7.133558607124958
 30
0.0
  0
POINT
  5
445
330
17
100
AcDbEntity
  8
SL-TRACK
100
AcDbPoint
 10
8.84372878384941
 20
7.133558607124958
 30
0.0
  0
POINT
  5
446
330
17
100
AcDbEntity
  8
SL-TRACK
100
AcDbPoint
 10
8.081328394947103
 20
7.133558607124958
 30
0.0
  0
POINT
  5
447
330
17
100
AcDbEntity
  8
SL-TRACK
100
AcDbPoint
 10
7.300793360104797
 20
7.133558607124958
 30
0.0
  0
POINT
  5
448
330
17
100
AcDbEntity
  8
SL-TRACK
100
AcDbPoint
 10
6.565719150016186
 20
7.133558607124958
 30
0.0
  0
POINT
  5
449
330
17
100
AcDbEntity
  8
SL-TRACK
100
AcDbPoint
 10
9.232008942811386
 20
6.710215915262343
 30
0.0
  0
POINT
  5
44A
330
17
100
AcDbEntity
  8
SL-TRACK
100
AcDbPoint
 10
8.467869615257303
 20
6.710215915262343
 30
0.0
  0
POINT
  5
44B
330
17
100
AcDbEntity
  8
SL-TRACK
100
AcDbPoint
 10
7.699258731170059
 20
6.710215915262343
 30
0.0
  0
POINT
  5
44C
330
17
100
AcDbEntity
  8
SL-TRACK
100
AcDbPoint
 10
6.930896266890218
 20
6.710215915262343
 30
0.0
  0
POINT
  5
44D
330
17
100
AcDbEntity
  8
SL-TRACK
100
AcDbPoint
 10
6.819355773368831
 20
6.087127023718069
 30
0.0
  0
POINT
  5
44E
330
17
100
AcDbEntity
  8
SL-TRACK
100
AcDbPoint
 10
9.683636152659676
 20
6.079425366765167
 30
0.0
  0
POINT
  5
44F
330
17
100
AcDbEntity
  8
SL-TRACK
100
AcDbPoint
 10
9.695179435138886
 20
5.431510597832454
 30
0.0
  0
POINT
  5
450
330
17
100
AcDbEntity
  8
SL-TRACK
100
AcDbPoint
 10
9.695179435138886
 20
5.368597588827063
 30
0.0
  0
POINT
  5
451
330
17
100
AcDbEntity
  8
SL-TRACK
100
AcDbPoint
 10
9.694420450660878
 20
4.525625098567991
 30
0.0
  0
POINT
  5
452
330
17
100
AcDbEntity
  8
SL-TRACK
100
AcDbPoint
 10
9.694420450660878
 20
4.462712089562601
 30
0.0
  0
POINT
  5
453
330
17
100
AcDbEntity
  8
SL-TRACK
100
AcDbPoint
 10
9.694420450660878
 20
3.812610996506896
 30
0.0
  0
POINT
  5
454
330
17
100
AcDbEntity
  8
SL-TRACK
100
AcDbPoint
 10
9.694420450660878
 20
3.749697987501506
 30
0.0
  0
POINT
  5
455
330
17
100
AcDbEntity
  8
SL-TRACK
100
AcDbPoint
 10
9.694420450660878
 20
2.806002852420647
 30
0.0
  0
POINT
  5
456
330
17
100
AcDbEntity
  8
SL-TRACK
100
AcDbPoint
 10
9.694420450660878
 20
2.743089843415256
 30
0.0
  0
POINT
  5
457
330
17
100
AcDbEntity
  8
SL-TRACK
100
AcDbPoint
 10
9.694420450660874
 20
1.799394708334395
 30
0.0
  0
POINT
  5
458
330
17
100
AcDbEntity
  8
SL-TRACK
100
AcDbPoint
 10
9.694420450660878
 20
1.736481699329004
 30
0.0
  0
POINT
  5
459
330
17
100
AcDbEntity
  8
SL-TRACK
100
AcDbPoint
 10
9.565578553559884
 20
1.736481699329004
 30
0.0
  0
POINT
  5
45A
330
17
100
AcDbEntity
  8
SL-TRACK
100
AcDbPoint
 10
9.565578553559884
 20
1.799394708334395
 30
0.0
  0
POINT
  5
45B
330
17
100
AcDbEntity
  8
SL-TRACK
100
AcDbPoint
 10
9.559483064921529
 20
2.743089843415256
 30
0.0
  0
POINT
  5
45C
330
17
100
AcDbEntity
  8
SL-TRACK
100
AcDbPoint
 10
9.559483064921529
 20
2.806002852420647
 30
0.0
  0
POINT
  5
45D
330
17
100
AcDbEntity
  8
SL-TRACK
100
AcDbPoint
 10
9.548048088686648
 20
3.749697987501506
 30
0.0
  0
POINT
  5
45E
330
17
100
AcDbEntity
  8
SL-TRACK
100
AcDbPoint
 10
9.548048088686648
 20
3.812610996506896
 30
0.0
  0
POINT
  5
45F
330
17
100
AcDbEntity
  8
SL-TRACK
100
AcDbPoint
 10
9.539977828729153
 20
4.462712089562601
 30
0.0
  0
POINT
  5
460
330
17
100
AcDbEntity
  8
SL-TRACK
100
AcDbPoint
 10
9.539977828729153
 20
4.525625098567991
 30
0.0
  0
POINT
  5
461
330
17
100
AcDbEntity
  8
SL-TRACK
100
AcDbPoint
 10
9.531558870510394
 20
5.368597588827063
 30
0.0
  0
POINT
  5
462
330
17
100
AcDbEntity
  8
SL-TRACK
100
AcDbPoint
 10
9.531558870510394
 20
5.431510597832454
 30
0.0
  0
LINE
  5
463
330
17
100
AcDbEntity
  8
SL-TRACK
100
AcDbLine
 10
10.05617025244187
 20
1.634248059695244
 30
0.0
 11
9.720634204413123
 21
1.634248059695244
 31
0.0
  0
LWPOLYLINE
  5
464
330
17
100
AcDbEntity
  8
PAPER
100
AcDbPolyline
 90
        5
 70
     0
 43
0.0
 10
2.218175968767313
 20
3.176457871389918
 10
2.293175968767313
 20
3.176457871389918
 10
2.293175968767313
 20
2.951457871389917
 10
2.218175968767313
 20
2.951457871389917
 10
2.218175968767313
 20
2.980032871389917
  0
LWPOLYLINE
  5
46B
330
17
100
AcDbEntity
  8
PAPER
100
AcDbPolyline
 90
        2
 70
     0
 43
0.0
 10
2.218175968767313
 20
3.147882871389918
 10
2.218175968767313
 20
3.176457871389918
  0
LINE
  5
46F
330
17
100
AcDbEntity
  8
PAPER
100
AcDbLine
 10
2.254739307373783
 20
2.980032871389918
 30
0.0
 11
2.275597843767311
 21
3.056766535361046
 31
0.0
  0
LINE
  5
470
330
17
100
AcDbEntity
  8
PAPER
100
AcDbLine
 10
1.229904764790815
 20
2.980032871389918
 30
0.0
 11
1.275531483918566
 21
3.147882871389918
 31
0.0
  0
LINE
  5
471
330
17
100
AcDbEntity
  8
PAPER
100
AcDbLine
 10
1.263333057373782
 20
2.980032871389918
 30
0.0
 11
1.308959776501533
 21
3.147882871389918
 31
0.0
  0
LINE
  5
472
330
17
100
AcDbEntity
  8
PAPER
100
AcDbLine
 10
1.293801807373782
 20
2.980032871389918
 30
0.0
 11
1.339428526501532
 21
3.147882871389918
 31
0.0
  0
LINE
  5
473
330
17
100
AcDbEntity
  8
PAPER
100
AcDbLine
 10
1.324270557373782
 20
2.980032871389918
 30
0.0
 11
1.369897276501532
 21
3.147882871389918
 31
0.0
  0
LINE
  5
474
330
17
100
AcDbEntity
  8
PAPER
100
AcDbLine
 10
2.228958057373783
 20
2.980032871389918
 30
0.0
 11
2.274584776501533
 21
3.147882871389918
 31
0.0
  0
LINE
  5
475
330
17
100
AcDbEntity
  8
PAPER
100
AcDbLine
 10
2.205520557373783
 20
2.980032871389918
 30
0.0
 11
2.251147276501533
 21
3.147882871389918
 31
0.0
  0
LINE
  5
476
330
17
100
AcDbEntity
  8
PAPER
100
AcDbLine
 10
2.179739307373782
 20
2.980032871389918
 30
0.0
 11
2.225366026501533
 21
3.147882871389918
 31
0.0
  0
LINE
  5
477
330
17
100
AcDbEntity
  8
PAPER
100
AcDbLine
 10
1.229904764790815
 20
3.089854901074306
 30
0.0
 11
1.245678526501532
 21
3.147882871389918
 31
0.0
  0
LINE
  5
478
330
17
100
AcDbEntity
  8
PAPER
100
AcDbLine
 10
1.229904764790816
 20
3.147882871389918
 30
0.0
 11
1.229904764790815
 21
2.980032871389918
 31
0.0
  0
LINE
  5
479
330
17
100
AcDbEntity
  8
PAPER
100
AcDbLine
 10
1.187401997683582
 20
3.147882871389918
 30
0.0
 11
1.187401997683582
 21
2.980032871389918
 31
0.0
  0
LINE
  5
47A
330
17
100
AcDbEntity
  8
PAPER
100
AcDbLine
 10
2.275597843767313
 20
3.147882871389918
 30
0.0
 11
1.187401997683582
 21
3.147882871389918
 31
0.0
  0
LINE
  5
47B
330
17
100
AcDbEntity
  8
PAPER
100
AcDbLine
 10
2.275597843767313
 20
2.980032871389918
 30
0.0
 11
1.187401997683582
 21
2.980032871389918
 31
0.0
  0
LINE
  5
47C
330
17
100
AcDbEntity
  8
PAPER
100
AcDbLine
 10
2.286144718767312
 20
2.956875694861361
 30
0.0
 11
2.275597843767313
 21
2.956875694861361
 31
0.0
  0
LINE
  5
47D
330
17
100
AcDbEntity
  8
PAPER
100
AcDbLine
 10
2.286144718767312
 20
3.171040047918473
 30
0.0
 11
2.275597843767313
 21
3.171040047918473
 31
0.0
  0
LINE
  5
47E
330
17
100
AcDbEntity
  8
PAPER
100
AcDbLine
 10
2.275597843767313
 20
3.171040047918473
 30
0.0
 11
2.275597843767313
 21
2.956875694861361
 31
0.0
  0
LINE
  5
47F
330
17
100
AcDbEntity
  8
PAPER
100
AcDbLine
 10
2.303722843767312
 20
3.089854901074306
 30
0.0
 11
2.319496605478029
 21
3.147882871389918
 31
0.0
  0
LINE
  5
480
330
17
100
AcDbEntity
  8
PAPER
100
AcDbLine
 10
3.253557386350278
 20
2.980032871389918
 30
0.0
 11
3.29918410547803
 21
3.147882871389918
 31
0.0
  0
LINE
  5
481
330
17
100
AcDbEntity
  8
PAPER
100
AcDbLine
 10
3.27933863635028
 20
2.980032871389918
 30
0.0
 11
3.324965355478028
 21
3.147882871389918
 31
0.0
  0
LINE
  5
482
330
17
100
AcDbEntity
  8
PAPER
100
AcDbLine
 10
3.30277613635028
 20
2.980032871389918
 30
0.0
 11
3.348402855478028
 21
3.147882871389918
 31
0.0
  0
LINE
  5
483
330
17
100
AcDbEntity
  8
PAPER
100
AcDbLine
 10
3.328557386350277
 20
2.980032871389918
 30
0.0
 11
3.349415922743808
 21
3.056766535361046
 31
0.0
  0
LINE
  5
484
330
17
100
AcDbEntity
  8
PAPER
100
AcDbLine
 10
2.398088636350279
 20
2.980032871389918
 30
0.0
 11
2.44371535547803
 21
3.147882871389918
 31
0.0
  0
LINE
  5
485
330
17
100
AcDbEntity
  8
PAPER
100
AcDbLine
 10
2.367619886350278
 20
2.980032871389918
 30
0.0
 11
2.413246605478029
 21
3.147882871389918
 31
0.0
  0
LINE
  5
486
330
17
100
AcDbEntity
  8
PAPER
100
AcDbLine
 10
2.337151136350279
 20
2.980032871389918
 30
0.0
 11
2.382777855478029
 21
3.147882871389918
 31
0.0
  0
LINE
  5
487
330
17
100
AcDbEntity
  8
PAPER
100
AcDbLine
 10
2.303722843767312
 20
2.980032871389918
 30
0.0
 11
2.349349562895063
 21
3.147882871389918
 31
0.0
  0
LINE
  5
488
330
17
100
AcDbEntity
  8
PAPER
100
AcDbLine
 10
3.349415922743808
 20
3.147882871389918
 30
0.0
 11
3.349415922743808
 21
2.980032871389918
 31
0.0
  0
LINE
  5
489
330
17
100
AcDbEntity
  8
PAPER
100
AcDbLine
 10
3.39191868985104
 20
3.147882871389918
 30
0.0
 11
3.391918689851042
 21
2.980032871389918
 31
0.0
  0
LINE
  5
48A
330
17
100
AcDbEntity
  8
PAPER
100
AcDbLine
 10
3.391918689851042
 20
3.082707871389918
 30
0.0
 11
3.856874365212743
 21
3.082707871389918
 31
0.0
  0
LINE
  5
48B
330
17
100
AcDbEntity
  8
PAPER
100
AcDbLine
 10
3.391918689851042
 20
3.045207871389917
 30
0.0
 11
3.856874365212743
 21
3.045207871389917
 31
0.0
  0
LINE
  5
48C
330
17
100
AcDbEntity
  8
PAPER
100
AcDbLine
 10
2.303722843767312
 20
3.147882871389918
 30
0.0
 11
3.39191868985104
 21
3.147882871389918
 31
0.0
  0
LINE
  5
48D
330
17
100
AcDbEntity
  8
PAPER
100
AcDbLine
 10
2.303722843767312
 20
2.980032871389918
 30
0.0
 11
3.39191868985104
 21
2.980032871389918
 31
0.0
  0
LINE
  5
48E
330
17
100
AcDbEntity
  8
PAPER
100
AcDbLine
 10
2.303722843767312
 20
3.171040047918473
 30
0.0
 11
2.303722843767312
 21
2.956875694861361
 31
0.0
  0
LINE
  5
48F
330
17
100
AcDbEntity
  8
PAPER
100
AcDbLine
 10
2.293175968767313
 20
3.171040047918473
 30
0.0
 11
2.303722843767312
 21
3.171040047918473
 31
0.0
  0
LINE
  5
490
330
17
100
AcDbEntity
  8
PAPER
100
AcDbLine
 10
2.293175968767313
 20
2.956875694861361
 30
0.0
 11
2.303722843767312
 21
2.956875694861361
 31
0.0
  0
LINE
  5
491
330
17
100
AcDbEntity
  8
PAPER
100
AcDbLine
 10
2.286144718767312
 20
3.176457871389918
 30
0.0
 11
2.286144718767312
 21
2.951457871389917
 31
0.0
  0
LINE
  5
492
330
17
100
AcDbEntity
  8
PAPER
100
AcDbLine
 10
4.025632802712742
 20
3.082707871389918
 30
0.0
 11
4.250632802712743
 21
3.082707871389918
 31
0.0
  0
LINE
  5
493
330
17
100
AcDbEntity
  8
PAPER
100
AcDbLine
 10
4.025632802712742
 20
3.045207871389917
 30
0.0
 11
4.250632802712743
 21
3.045207871389917
 31
0.0
  0
LINE
  5
494
330
17
100
AcDbEntity
  8
PAPER
100
AcDbLine
 10
0.7630274439840834
 20
3.045207871389918
 30
0.0
 11
1.187401997683582
 21
3.045207871389918
 31
0.0
  0
LINE
  5
495
330
17
100
AcDbEntity
  8
PAPER
100
AcDbLine
 10
0.7630274439840834
 20
3.082707871389918
 30
0.0
 11
1.187401997683582
 21
3.082707871389918
 31
0.0
  0
LINE
  5
496
330
17
100
AcDbEntity
  8
PAPER
100
AcDbLine
 10
4.250632802712743
 20
3.045207871389917
 30
0.0
 11
4.250632802712743
 21
3.082707871389918
 31
0.0
  0
LINE
  5
497
330
17
100
AcDbEntity
  8
PAPER
100
AcDbLine
 10
0.3692690064840831
 20
3.045207871389917
 30
0.0
 11
0.3692690064840831
 21
3.082707871389918
 31
0.0
  0
LINE
  5
498
330
17
100
AcDbEntity
  8
PAPER
100
AcDbLine
 10
0.3692690064840831
 20
3.045207871389917
 30
0.0
 11
0.5942690064840832
 21
3.045207871389917
 31
0.0
  0
LINE
  5
499
330
17
100
AcDbEntity
  8
PAPER
100
AcDbLine
 10
0.3692690064840831
 20
3.082707871389918
 30
0.0
 11
0.5942690064840832
 21
3.082707871389918
 31
0.0
  0
LINE
  5
49A
330
17
100
AcDbEntity
  8
PAPER
  6
CENTER
100
AcDbLine
 10
0.2104469334199073
 20
3.063957871389917
 30
0.0
 11
4.336194302410518
 21
3.063957871389917
 31
0.0
  0
LWPOLYLINE
  5
49B
330
17
100
AcDbEntity
  8
SL-TRACK
100
AcDbPolyline
 90
        4
 70
     1
 43
0.0
 10
4.025632802712742
 20
2.951452246389917
 10
4.025632802712742
 20
3.176463496389918
 10
4.016257333962743
 20
3.176463496389918
 10
4.016257333962743
 20
2.951452246389917
  0
LWPOLYLINE
  5
4A1
330
17
100
AcDbEntity
  8
SL-TRACK
100
AcDbPolyline
 90
        4
 70
     1
 43
0.0
 10
3.866249833962742
 20
2.951452246389917
 10
3.866249833962742
 20
3.176463496389918
 10
3.856874365212743
 20
3.176463496389918
 10
3.856874365212743
 20
2.951452246389917
  0
ARC
  5
4A7
330
17
100
AcDbEntity
  8
SL-TRACK
100
AcDbCircle
 10
3.941253583962744
 20
3.394331532104204
 30
0.0
 40
0.2422710926903082
100
AcDbArc
 50
251.9657144328701
 51
288.0342855671299
  0
ARC
  5
4A8
330
17
100
AcDbEntity
  8
SL-TRACK
100
AcDbCircle
 10
3.941253583962744
 20
2.733584210675632
 30
0.0
 40
0.2422710926903082
100
AcDbArc
 50
71.96571443287012
 51
108.0342855671299
  0
LINE
  5
4A9
330
17
100
AcDbEntity
  8
SL-TRACK
100
AcDbLine
 10
4.003756708962741
 20
3.143649355764918
 30
0.0
 11
4.003756708962741
 21
3.028018574514917
 31
0.0
  0
LINE
  5
4AA
330
17
100
AcDbEntity
  8
SL-TRACK
100
AcDbLine
 10
3.994381240212741
 20
3.110835215139919
 30
0.0
 11
3.994381240212741
 21
3.010830215139917
 31
0.0
  0
LINE
  5
4AB
330
17
100
AcDbEntity
  8
SL-TRACK
100
AcDbLine
 10
3.985005771462742
 20
3.126460996389918
 30
0.0
 11
3.985005771462742
 21
3.020205683889916
 31
0.0
  0
LINE
  5
4AC
330
17
100
AcDbEntity
  8
SL-TRACK
100
AcDbLine
 10
0.6348960377340834
 20
3.126460996389918
 30
0.0
 11
0.6348960377340834
 21
3.020205683889916
 31
0.0
  0
LINE
  5
4AD
330
17
100
AcDbEntity
  8
SL-TRACK
100
AcDbLine
 10
0.6255205689840833
 20
3.110835215139919
 30
0.0
 11
0.6255205689840833
 21
3.010830215139917
 31
0.0
  0
LINE
  5
4AE
330
17
100
AcDbEntity
  8
SL-TRACK
100
AcDbLine
 10
0.6161451002340832
 20
3.143649355764918
 30
0.0
 11
0.6161451002340832
 21
3.028018574514917
 31
0.0
  0
ARC
  5
4AF
330
17
100
AcDbEntity
  8
SL-TRACK
100
AcDbCircle
 10
0.6786482252340833
 20
2.733584210675632
 30
0.0
 40
0.2422710926903082
100
AcDbArc
 50
71.9657144328701
 51
108.0342855671299
  0
ARC
  5
4B0
330
17
100
AcDbEntity
  8
SL-TRACK
100
AcDbCircle
 10
0.6786482252340833
 20
3.394331532104204
 30
0.0
 40
0.2422710926903082
100
AcDbArc
 50
251.9657144328701
 51
288.0342855671299
  0
LWPOLYLINE
  5
4B1
330
17
100
AcDbEntity
  8
SL-TRACK
100
AcDbPolyline
 90
        4
 70
     1
 43
0.0
 10
0.7536519752340829
 20
2.951452246389917
 10
0.7536519752340829
 20
3.176463496389918
 10
0.7630274439840834
 20
3.176463496389918
 10
0.7630274439840834
 20
2.951452246389917
  0
LWPOLYLINE
  5
4B7
330
17
100
AcDbEntity
  8
SL-TRACK
100
AcDbPolyline
 90
        4
 70
     1
 43
0.0
 10
0.5942690064840832
 20
2.951452246389917
 10
0.5942690064840832
 20
3.176463496389918
 10
0.6036444752340833
 20
3.176463496389918
 10
0.6036444752340833
 20
2.951452246389917
  0
LINE
  5
4BD
330
17
100
AcDbEntity
  8
SL-TRACK
100
AcDbLine
 10
0.6124611132122631
 20
2.461799044787118
 30
0.0
 11
0.6124611132122631
 21
2.959663489086876
 31
0.0
  0
LINE
  5
4BE
330
17
100
AcDbEntity
  8
SL-TRACK
100
AcDbLine
 10
6.777020669081025
 20
6.558861208959004
 30
0.0
 11
6.777020669081026
 21
6.028799129343002
 31
0.0
  0
LINE
  5
4BF
330
17
100
AcDbEntity
  8
SL-TRACK
100
AcDbLine
 10
6.788345665682158
 20
6.558861208959004
 30
0.0
 11
6.788345665682158
 21
6.028799129343002
 31
0.0
  0
LINE
  5
4C0
330
17
100
AcDbEntity
  8
SL-TRACK
100
AcDbLine
 10
6.860904681088213
 20
6.644949625981696
 30
0.0
 11
6.860904681088213
 21
6.668776939888249
 31
0.0
  0
LINE
  5
4C1
330
17
100
AcDbEntity
  8
SL-TRACK
100
AcDbLine
 10
8.129740966752759
 20
6.644949625981696
 30
0.0
 11
8.129740966752759
 21
6.668776939888249
 31
0.0
  0
LINE
  5
4C2
330
17
100
AcDbEntity
  8
SL-TRACK
100
AcDbLine
 10
8.04585695474557
 20
6.668776939888249
 30
0.0
 11
8.04585695474557
 21
6.644949625981698
 31
0.0
  0
LINE
  5
4C3
330
17
100
AcDbEntity
  8
SL-TRACK
100
AcDbLine
 10
8.129740966752759
 20
6.123168642851088
 30
0.0
 11
8.129740966752759
 21
6.558861208959004
 31
0.0
  0
LINE
  5
4C4
330
17
100
AcDbEntity
  8
SL-TRACK
100
AcDbLine
 10
8.057181951346702
 20
6.668776939888249
 30
0.0
 11
8.057181951346702
 21
6.644949625981698
 31
0.0
  0
LINE
  5
4C5
330
17
100
AcDbEntity
  8
SL-TRACK
100
AcDbLine
 10
8.04585695474557
 20
6.558861208959004
 30
0.0
 11
8.04585695474557
 21
6.123168642851088
 31
0.0
  0
LINE
  5
4C6
330
17
100
AcDbEntity
  8
SL-TRACK
100
AcDbLine
 10
8.057181951346702
 20
6.558861208959004
 30
0.0
 11
8.057181951346702
 21
6.123168642851088
 31
0.0
  0
POINT
  5
4C7
330
17
100
AcDbEntity
  8
SL-TRACK
100
AcDbPoint
 10
8.891552332576743
 20
6.087127023718069
 30
0.0
  0
TEXT
  5
4C8
330
17
100
AcDbEntity
  8
SL-TRACK
100
AcDbText
 10
5.626038924163985
 20
7.998909083121954
 30
0.0
 40
0.07
  1
INTERMEDIATE HORIZONTAL
  7
ARIAL2
100
AcDbText
  0
TEXT
  5
4C9
330
17
100
AcDbEntity
  8
SL-TRACK
100
AcDbText
 10
5.391892106188376
 20
7.871737993113026
 30
0.0
 40
0.07
  1
%%uTRACK SUPPORT: (BY INSTALLER)
  7
ARIAL2
100
AcDbText
  0
TEXT
  5
4CA
330
17
100
AcDbEntity
  8
PAPER
100
AcDbText
 10
7.927079019691903
 20
3.876200023925274
 30
0.0
 40
0.07
  1
%%uVERTICAL TRACK:
  7
ARIAL2
100
AcDbText
  0
TEXT
  5
4CB
330
17
100
AcDbEntity
  8
PAPER
100
AcDbText
 10
7.035898245108931
 20
5.588734455806813
 30
0.0
 40
0.07
  1
%%uHORIZONTAL TRACK:
  7
ARIAL2
100
AcDbText
  0
TEXT
  5
4CC
330
17
100
AcDbEntity
  8
PAPER
100
AcDbText
 10
8.542973325031731
 20
5.467364975848655
 30
0.0
 40
0.07
  1
%%URADIUS:
  7
ARIAL2
100
AcDbText
  0
SOLID
  5
4CD
330
17
100
AcDbEntity
  8
SL-TRACK
100
AcDbTrace
 10
7.995236009960049
 20
6.502613225943806
 30
0.0
 11
7.974281213440346
 21
6.492349652138238
 31
0.0
 12
8.015549333116901
 22
6.434617049481917
 32
0.0
 13
8.015549333116901
 23
6.434617049481917
 33
0.0
  0
LINE
  5
4CE
330
17
100
AcDbEntity
  8
SL-TRACK
100
AcDbLine
 10
7.984758611700198
 20
6.497481439041022
 30
0.0
 11
7.231075013521551
 21
8.036252118655756
 31
0.0
  0
LINE
  5
4CF
330
17
100
AcDbEntity
  8
SL-TRACK
100
AcDbLine
 10
7.231075013521552
 20
8.036252118655756
 30
0.0
 11
7.082183534886238
 21
8.036252118655756
 31
0.0
  0
TEXT
  5
4D0
330
17
100
AcDbEntity
  8
SL-TRACK
100
AcDbText
 10
5.483417130850813
 20
7.591951743188388
 30
0.0
 40
0.07
  1
  (DOORS THRU 12'0" HIGH)
  7
ARIAL1
100
AcDbText
  0
INSERT
  5
4D1
330
17
100
AcDbEntity
  8
SL-TRACK
100
AcDbBlockReference
  2
RECT
 10
5.393712373692035
 20
7.644711823841806
 30
0.0
 41
0.09375
 42
0.09375
 43
0.09375
  0
TEXT
  5
4D2
330
17
100
AcDbEntity
  8
SL-TRACK
100
AcDbText
 10
5.483417130850813
 20
7.682026925835749
 30
0.0
 40
0.07
  1
  NO
  7
ARIAL1
100
AcDbText
  0
INSERT
  5
4D3
330
17
100
AcDbEntity
  8
SL-TRACK
100
AcDbBlockReference
  2
RECT
 10
5.393712373692035
 20
7.410516348958665
 30
0.0
 41
0.09375
 42
0.09375
 43
0.09375
  0
TEXT
  5
4D4
330
17
100
AcDbEntity
  8
SL-TRACK
100
AcDbText
 10
5.483417130850813
 20
7.447831450952609
 30
0.0
 40
0.07
  1
  YES
  7
ARIAL1
100
AcDbText
  0
TEXT
  5
4D5
330
17
100
AcDbEntity
  8
SL-TRACK
100
AcDbText
 10
5.483417130850813
 20
7.357756268305248
 30
0.0
 40
0.07
  1
  (DOORS OVER 12'3" HIGH)
  7
ARIAL1
100
AcDbText
  0
SOLID
  5
4D6
330
17
100
AcDbEntity
  8
PAPER
100
AcDbTrace
 10
9.241845613660654
 20
5.794393160853275
 30
0.0
 11
9.263902399003956
 21
5.786781152920813
 31
0.0
 12
9.27571003012969
 22
5.856757512916956
 32
0.0
 13
9.27571003012969
 23
5.856757512916956
 33
0.0
  0
LINE
  5
4D7
330
17
100
AcDbEntity
  8
PAPER
100
AcDbLine
 10
9.252874006332305
 20
5.790587156887043
 30
0.0
 11
9.150804631857319
 21
5.49482783780918
 31
0.0
  0
LINE
  5
4D8
330
17
100
AcDbEntity
  8
PAPER
100
AcDbLine
 10
9.150804631857319
 20
5.49482783780918
 30
0.0
 11
8.975994218569596
 21
5.49482783780918
 31
0.0
  0
SOLID
  5
4D9
330
17
100
AcDbEntity
  8
PAPER
100
AcDbTrace
 10
8.434018280432798
 20
5.971106872762197
 30
0.0
 11
8.455221446316741
 21
5.961366739244501
 31
0.0
 12
8.473840263927858
 22
6.029846303655169
 32
0.0
 13
8.473840263927858
 23
6.029846303655169
 33
0.0
  0
LINE
  5
4DA
330
17
100
AcDbEntity
  8
PAPER
100
AcDbLine
 10
8.444619863374771
 20
5.966236806003349
 30
0.0
 11
8.286024503001645
 21
5.620992695303524
 31
0.0
  0
LINE
  5
4DB
330
17
100
AcDbEntity
  8
PAPER
100
AcDbLine
 10
8.286024503001645
 20
5.620992695303525
 30
0.0
 11
8.173641820354134
 21
5.620992695303525
 31
0.0
  0
SOLID
  5
4DC
330
17
100
AcDbEntity
  8
SL-TRACK
100
AcDbTrace
 10
6.943433607462839
 20
5.811181029996739
 30
0.0
 11
6.964019979750902
 21
5.800197145416968
 31
0.0
 12
6.986678447346183
 22
5.867448204571041
 32
0.0
 13
6.986678447346183
 23
5.867448204571041
 33
0.0
  0
LINE
  5
4DD
330
17
100
AcDbEntity
  8
SL-TRACK
100
AcDbLine
 10
6.953726793606871
 20
5.805689087706853
 30
0.0
 11
6.569311833398229
 21
5.085205416699366
 31
0.0
  0
LINE
  5
4DE
330
17
100
AcDbEntity
  8
SL-TRACK
100
AcDbLine
 10
6.569311833398229
 20
5.085205416699366
 30
0.0
 11
6.499311833398229
 21
5.085205416699366
 31
0.0
  0
SOLID
  5
4DF
330
17
100
AcDbEntity
  8
PAPER
100
AcDbTrace
 10
9.445355389360134
 20
4.171161232359503
 30
0.0
 11
9.456347025295652
 21
4.150578997692067
 31
0.0
 12
9.512597911330203
 22
4.193845022832347
 32
0.0
 13
9.512597911330203
 23
4.193845022832347
 33
0.0
  0
LINE
  5
4E0
330
17
100
AcDbEntity
  8
PAPER
100
AcDbLine
 10
9.450851207327893
 20
4.160870115025785
 30
0.0
 11
8.974234028076988
 21
3.906339807720098
 31
0.0
  0
LINE
  5
4E1
330
17
100
AcDbEntity
  8
PAPER
100
AcDbLine
 10
8.974234028076988
 20
3.906339807720098
 30
0.0
 11
8.904234028076988
 21
3.906339807720098
 31
0.0
  0
TEXT
  5
4E2
330
17
100
AcDbEntity
  8
PAPER
100
AcDbText
 10
7.213804071569476
 20
5.43946192783473
 30
0.0
 40
0.07
  1
14 GA. MIN. 
  7
ARIAL1
100
AcDbText
  0
TEXT
  5
4E3
330
17
100
AcDbEntity
  8
PAPER
100
AcDbText
 10
7.213804071569476
 20
5.341238154815111
 30
0.0
 40
0.07
  1
2" TRACK
  7
ARIAL1
100
AcDbText
  0
TEXT
  5
4E4
330
17
100
AcDbEntity
  8
PAPER
100
AcDbText
 10
7.213804071569476
 20
5.206128594501397
 30
0.0
 40
0.07
  1
12 GA.
  7
ARIAL1
100
AcDbText
  0
TEXT
  5
4E5
330
17
100
AcDbEntity
  8
PAPER
100
AcDbText
 10
7.213804071569476
 20
5.107904821481779
 30
0.0
 40
0.07
  1
3" TRACK
  7
ARIAL1
100
AcDbText
  0
INSERT
  5
4E6
330
17
100
AcDbEntity
  8
PAPER
100
AcDbBlockReference
  2
RECT
 10
7.054137894194608
 20
5.382303281780097
 30
0.0
 41
0.09375
 42
0.09375
 43
0.09375
  0
INSERT
  5
4E7
330
17
100
AcDbEntity
  8
PAPER
100
AcDbBlockReference
  2
RECT
 10
7.054137894194608
 20
5.148107806896956
 30
0.0
 41
0.09375
 42
0.09375
 43
0.09375
  0
TEXT
  5
4E8
330
17
100
AcDbEntity
  8
PAPER
100
AcDbText
 10
8.545027624289396
 20
5.340576902375029
 30
0.0
 40
0.07
  1
15" R.
  7
ARIAL1
100
AcDbText
  0
TEXT
  5
4E9
330
17
100
AcDbEntity
  8
SL-TRACK
100
AcDbText
 10
4.342478152491493
 20
5.505703962792696
 30
0.0
 40
0.07
  1
NO
  7
ARIAL1
100
AcDbText
  0
TEXT
  5
4EA
330
17
100
AcDbEntity
  8
SL-TRACK
100
AcDbText
 10
4.342478152491493
 20
5.661049640020051
 30
0.0
 40
0.07
  1
YES
  7
ARIAL1
100
AcDbText
  0
INSERT
  5
4EB
330
17
100
AcDbEntity
  8
SL-TRACK
100
AcDbBlockReference
  2
RECT
 10
4.182811975116626
 20
5.492833923460137
 30
0.0
 41
0.09375
 42
0.09375
 43
0.09375
  0
INSERT
  5
4EC
330
17
100
AcDbEntity
  8
SL-TRACK
100
AcDbBlockReference
  2
RECT
 10
4.182811975116626
 20
5.6490417422373
 30
0.0
 41
0.09375
 42
0.09375
 43
0.09375
  0
INSERT
  5
4ED
330
17
100
AcDbEntity
  8
PAPER
100
AcDbBlockReference
  2
RECT
 10
7.945318668777578
 20
3.435573375015417
 30
0.0
 41
0.09375
 42
0.09375
 43
0.09375
  0
INSERT
  5
4EE
330
17
100
AcDbEntity
  8
PAPER
100
AcDbBlockReference
  2
RECT
 10
7.945318668777578
 20
3.669768849898558
 30
0.0
 41
0.09375
 42
0.09375
 43
0.09375
  0
TEXT
  5
4EF
330
17
100
AcDbEntity
  8
PAPER
100
AcDbText
 10
8.104984846152444
 20
3.395370389600239
 30
0.0
 40
0.07
  1
3" TRACK
  7
ARIAL1
100
AcDbText
  0
TEXT
  5
4F0
330
17
100
AcDbEntity
  8
PAPER
100
AcDbText
 10
8.104984846152444
 20
3.493594162619858
 30
0.0
 40
0.07
  1
12 GA.
  7
ARIAL1
100
AcDbText
  0
TEXT
  5
4F1
330
17
100
AcDbEntity
  8
PAPER
100
AcDbText
 10
8.104984846152444
 20
3.628703722933572
 30
0.0
 40
0.07
  1
2" TRACK
  7
ARIAL1
100
AcDbText
  0
TEXT
  5
4F2
330
17
100
AcDbEntity
  8
PAPER
100
AcDbText
 10
8.104984846152444
 20
3.726927495953191
 30
0.0
 40
0.07
  1
16 GA. MIN. 
  7
ARIAL1
100
AcDbText
  0
INSERT
  5
4F3
330
17
100
AcDbEntity
  8
SL-TRACK
100
AcDbBlockReference
  2
RECT
 10
5.566908882748835
 20
4.87404241602308
 30
0.0
 41
0.09375
 42
0.09375
 43
0.09375
  0
INSERT
  5
4F4
330
17
100
AcDbEntity
  8
SL-TRACK
100
AcDbBlockReference
  2
RECT
 10
5.566908882748835
 20
4.717834597245917
 30
0.0
 41
0.09375
 42
0.09375
 43
0.09375
  0
TEXT
  5
4F5
330
17
100
AcDbEntity
  8
SL-TRACK
100
AcDbText
 10
5.726575060123701
 20
4.886050313805831
 30
0.0
 40
0.07
  1
YES (OPTIONAL)
  7
ARIAL1
100
AcDbText
  0
TEXT
  5
4F6
330
17
100
AcDbEntity
  8
SL-TRACK
100
AcDbText
 10
5.726575060123701
 20
4.730704636578476
 30
0.0
 40
0.07
  1
NO
  7
ARIAL1
100
AcDbText
  0
SOLID
  5
4F7
330
17
100
AcDbEntity
  8
PAPER
100
AcDbTrace
 10
9.284693159576171
 20
6.207947193605868
 30
0.0
 11
9.261820065940629
 21
6.203335682792252
 31
0.0
 12
9.287091145199255
 22
6.13702215729243
 32
0.0
 13
9.287091145199255
 23
6.13702215729243
 33
0.0
  0
LINE
  5
4F8
330
17
100
AcDbEntity
  8
PAPER
100
AcDbLine
 10
9.273256612758402
 20
6.20564143819906
 30
0.0
 11
8.948915131347565
 21
7.81437518599681
 31
0.0
  0
LINE
  5
4F9
330
17
100
AcDbEntity
  8
PAPER
100
AcDbLine
 10
8.948915131347561
 20
7.814375185996809
 30
0.0
 11
8.878915131347561
 21
7.814375185996809
 31
0.0
  0
TEXT
  5
4FA
330
17
100
AcDbEntity
  8
PAPER
100
AcDbText
 10
7.783590812957667
 20
7.779375185996808
 30
0.0
 40
0.07
  1
%%UHORIZONTAL ANGLE:
  7
ARIAL2
100
AcDbText
  0
TEXT
  5
4FB
330
17
100
AcDbEntity
  8
PAPER
100
AcDbText
 10
7.783590812957667
 20
7.662708519330142
 30
0.0
 40
0.07
  1
13 GA. MIN.
  7
ARIAL1
100
AcDbText
  0
TEXT
  5
4FE
330
17
100
AcDbEntity
  8
SL-TRACK
100
AcDbText
 10
7.506378596365078
 20
4.714745293727705
 30
0.0
 40
0.07
  1
DOOR HEIGHT + 23" (2" TRACK)
  7
ARIAL1
 72
     4
 11
8.24882743674707
 21
4.740076125924158
 31
0.0
100
AcDbText
  0
TEXT
  5
4FF
330
17
100
AcDbEntity
  8
SL-TRACK
100
AcDbText
 10
7.506378596365078
 20
4.598078627061038
 30
0.0
 40
0.07
  1
DOOR HEIGHT + 25" (3" TRACK)
  7
ARIAL1
 72
     4
 11
8.24882743674707
 21
4.623409459257492
 31
0.0
100
AcDbText
  0
TEXT
  5
500
330
17
100
AcDbEntity
  8
SL-TRACK
100
AcDbText
 10
7.084386212493585
 20
4.155102110289378
 30
0.0
 40
0.07
  1
DOOR HEIGHT + 4'-0"
  7
ARIAL1
 72
     4
 11
7.582455789574076
 21
4.190125984777782
 31
0.0
100
AcDbText
  0
TEXT
  5
501
330
17
100
AcDbEntity
  8
PAPER
100
AcDbText
 10
0.7250585082335388
 20
7.214739232475717
 30
0.0
 40
0.07
  1
DOOR
  7
ARIAL1
 72
     1
 11
0.8717433649866084
 21
7.214739232475717
 31
0.0
100
AcDbText
  0
TEXT
  5
502
330
17
100
AcDbEntity
  8
PAPER
100
AcDbText
 10
0.6870264482062538
 20
7.09807256580905
 30
0.0
 40
0.07
  1
HEIGHT
  7
ARIAL1
 72
     1
 11
0.8717433649866084
 21
7.09807256580905
 31
0.0
100
AcDbText
  0
TEXT
  5
503
330
17
100
AcDbEntity
  8
PAPER
100
AcDbText
 10
1.429146161712392
 20
7.174158110813514
 30
0.0
 40
0.07
  1
2" TRACK
  7
ARIAL1
 72
     1
 11
1.652993364986608
 21
7.174158110813514
 31
0.0
100
AcDbText
  0
TEXT
  5
504
330
17
100
AcDbEntity
  8
PAPER
100
AcDbText
 10
2.043375255671216
 20
7.174158110813514
 30
0.0
 40
0.07
  1
3" TRACK
  7
ARIAL1
 72
     1
 11
2.267222458945432
 21
7.174158110813514
 31
0.0
100
AcDbText
  0
LINE
  5
505
330
17
100
AcDbEntity
  8
PAPER
100
AcDbLine
 10
1.340493364986608
 20
7.339739232475717
 30
0.0
 11
1.340493364986608
 21
6.495989232475717
 31
0.0
  0
LINE
  5
506
330
17
100
AcDbEntity
  8
PAPER
100
AcDbLine
 10
1.965493364986608
 20
7.339739232475717
 30
0.0
 11
1.965493364986608
 21
6.495989232475717
 31
0.0
  0
LINE
  5
507
330
17
100
AcDbEntity
  8
PAPER
100
AcDbLine
 10
2.590493364986608
 20
7.339739232475717
 30
0.0
 11
2.590493364986608
 21
6.495989232475717
 31
0.0
  0
LINE
  5
508
330
17
100
AcDbEntity
  8
PAPER
100
AcDbLine
 10
0.4342433649866085
 20
7.058489232475717
 30
0.0
 11
2.590493364986608
 21
7.058489232475718
 31
0.0
  0
LINE
  5
509
330
17
100
AcDbEntity
  8
PAPER
100
AcDbLine
 10
0.4342433649866085
 20
7.339739232475717
 30
0.0
 11
2.590493364986608
 21
7.339739232475718
 31
0.0
  0
LINE
  5
50A
330
17
100
AcDbEntity
  8
PAPER
100
AcDbLine
 10
0.4342433649866085
 20
7.339739232475717
 30
0.0
 11
0.4342433649866085
 21
6.495989232475717
 31
0.0
  0
TEXT
  5
50B
330
17
100
AcDbEntity
  8
PAPER
100
AcDbText
 10
0.4654933649866085
 20
6.933489232475717
 30
0.0
 40
0.07
  1
UP TO 10'0"
  7
ARIAL1
100
AcDbText
  0
TEXT
  5
50C
330
17
100
AcDbEntity
  8
PAPER
100
AcDbText
 10
0.4654933649866085
 20
6.746111086970961
 30
0.0
 40
0.07
  1
10'3" - 18'0"
  7
ARIAL1
100
AcDbText
  0
TEXT
  5
50D
330
17
100
AcDbEntity
  8
PAPER
100
AcDbText
 10
0.4654933649866085
 20
6.558732941466204
 30
0.0
 40
0.07
  1
18'3" AND UP
  7
ARIAL1
100
AcDbText
  0
LINE
  5
50E
330
17
100
AcDbEntity
  8
PAPER
100
AcDbLine
 10
0.4342433649866085
 20
6.870989232475717
 30
0.0
 11
2.590493364986608
 21
6.870989232475717
 31
0.0
  0
LINE
  5
50F
330
17
100
AcDbEntity
  8
PAPER
100
AcDbLine
 10
0.4342433649866085
 20
6.683489232475717
 30
0.0
 11
2.590493364986608
 21
6.683489232475717
 31
0.0
  0
LINE
  5
510
330
17
100
AcDbEntity
  8
PAPER
100
AcDbLine
 10
0.4342433649866085
 20
6.495989232475717
 30
0.0
 11
2.590493364986608
 21
6.495989232475717
 31
0.0
  0
TEXT
  5
511
330
17
100
AcDbEntity
  8
PAPER
100
AcDbText
 10
1.581250527333129
 20
6.933489232475717
 30
0.0
 40
0.07
  1
16"
  7
ARIAL1
 72
     1
 11
1.652993364986608
 21
6.933489232475717
 31
0.0
100
AcDbText
  0
TEXT
  5
512
330
17
100
AcDbEntity
  8
PAPER
100
AcDbText
 10
2.195479621291953
 20
6.933489232475717
 30
0.0
 40
0.07
  1
18"
  7
ARIAL1
 72
     1
 11
2.267222458945432
 21
6.933489232475717
 31
0.0
100
AcDbText
  0
TEXT
  5
513
330
17
100
AcDbEntity
  8
PAPER
100
AcDbText
 10
1.581250527333129
 20
6.745989232475717
 30
0.0
 40
0.07
  1
16"
  7
ARIAL1
 72
     1
 11
1.652993364986608
 21
6.745989232475717
 31
0.0
100
AcDbText
  0
TEXT
  5
514
330
17
100
AcDbEntity
  8
PAPER
100
AcDbText
 10
2.195479621291953
 20
6.745989232475717
 30
0.0
 40
0.07
  1
18"
  7
ARIAL1
 72
     1
 11
2.267222458945432
 21
6.745989232475717
 31
0.0
100
AcDbText
  0
TEXT
  5
515
330
17
100
AcDbEntity
  8
PAPER
100
AcDbText
 10
1.49969527494568
 20
6.558489232475717
 30
0.0
 40
0.07
  1
18 3/4"
  7
ARIAL1
 72
     1
 11
1.652993364986608
 21
6.558489232475717
 31
0.0
100
AcDbText
  0
TEXT
  5
516
330
17
100
AcDbEntity
  8
PAPER
100
AcDbText
 10
2.113924368904504
 20
6.558489232475717
 30
0.0
 40
0.07
  1
19 3/4"
  7
ARIAL1
 72
     1
 11
2.267222458945432
 21
6.558489232475717
 31
0.0
100
AcDbText
  0
LINE
  5
517
330
17
100
AcDbEntity
  8
SL-TRACK
100
AcDbLine
 10
5.347887800217671
 20
5.859358088173348
 30
0.0
 11
5.277887800217671
 21
5.859358088173348
 31
0.0
  0
LINE
  5
518
330
17
100
AcDbEntity
  8
SL-TRACK
100
AcDbLine
 10
5.752725169901197
 20
6.420674063408314
 30
0.0
 11
5.347887800217671
 21
5.859358088173348
 31
0.0
  0
SOLID
  5
519
330
17
100
AcDbEntity
  8
SL-TRACK
100
AcDbTrace
 10
5.762187552966583
 20
6.413849518160827
 30
0.0
 11
5.743262786835812
 21
6.427498608655802
 31
0.0
 12
5.793672441386124
 22
6.47744836180063
 32
0.0
 13
5.793672441386124
 23
6.47744836180063
 33
0.0
  0
SOLID
  5
51A
330
17
100
AcDbEntity
  8
PAPER
100
AcDbTrace
 10
6.714406347045317
 20
6.382757341532431
 30
0.0
 11
6.698459780323424
 21
6.365723508897682
 31
0.0
 12
6.757534561588618
 22
6.326400725049377
 32
0.0
 13
6.757534561588618
 23
6.326400725049377
 33
0.0
  0
LINE
  5
51B
330
17
100
AcDbEntity
  8
PAPER
100
AcDbLine
 10
6.70643306368437
 20
6.374240425215056
 30
0.0
 11
6.121763655547441
 21
6.92159050942835
 31
0.0
  0
LINE
  5
51C
330
17
100
AcDbEntity
  8
PAPER
100
AcDbLine
 10
6.121763655547439
 20
6.921590509428348
 30
0.0
 11
5.526573871168465
 21
6.921590509428348
 31
0.0
  0
TEXT
  5
51D
330
17
100
AcDbEntity
  8
PAPER
100
AcDbText
 10
4.665496923468122
 20
6.886590509428348
 30
0.0
 40
0.07
  1
%%UREAR HANGER:
  7
ARIAL2
100
AcDbText
  0
TEXT
  5
51E
330
17
100
AcDbEntity
  8
PAPER
100
AcDbText
 10
4.665496923468122
 20
6.769923842761682
 30
0.0
 40
0.07
  1
(SUPPLIED BY INSTALLER)
  7
ARIAL1
100
AcDbText
  0
LWPOLYLINE
  5
51F
330
17
100
AcDbEntity
  8
PAPER
100
AcDbPolyline
 90
        3
 70
     0
 43
0.0
 10
2.512320969849456
 20
3.3134199150401
 10
2.012320969849456
 20
3.3134199150401
 10
2.012320969849456
 20
3.147882871389918
  0
LWPOLYLINE
  5
524
330
17
100
AcDbEntity
  8
PAPER
100
AcDbPolyline
 90
        4
 70
     0
 43
0.0
 10
2.012320969849456
 20
2.980032871389918
 10
2.012320969849456
 20
2.8134199150401
 10
2.512320969849456
 20
2.8134199150401
 10
2.512320969849456
 20
2.980032871389918
  0
LWPOLYLINE
  5
52A
330
17
100
AcDbEntity
  8
PAPER
100
AcDbPolyline
 90
        2
 70
     0
 43
0.0
 10
2.512320969849456
 20
3.147882871389917
 10
2.512320969849456
 20
3.3134199150401
  0
LINE
  5
52E
330
17
100
AcDbEntity
  8
PAPER
100
AcDbLine
 10
0.6568392717041374
 20
2.484721207694184
 30
0.0
 11
0.6568392717041374
 21
2.974871698745939
 31
0.0
  0
LINE
  5
52F
330
17
100
AcDbEntity
  8
PAPER
100
AcDbLine
 10
0.6568392717041374
 20
3.330200087245924
 30
0.0
 11
0.3457173389605832
 21
3.330200087245924
 31
0.0
  0
LINE
  5
530
330
17
100
AcDbEntity
  8
PAPER
100
AcDbLine
 10
0.6568392717041374
 20
3.153044044033881
 30
0.0
 11
0.6568392717041374
 21
3.330200087245924
 31
0.0
  0
CIRCLE
  5
531
330
17
100
AcDbEntity
  8
PAPER
100
AcDbCircle
 10
0.5761406451331417
 20
3.000104943217486
 30
0.0
 40
0.0082700277068097
  0
CIRCLE
  5
532
330
17
100
AcDbEntity
  8
PAPER
100
AcDbCircle
 10
0.5761406451331417
 20
3.129117375443737
 30
0.0
 40
0.0082700277068097
  0
LWPOLYLINE
  5
533
330
17
100
AcDbEntity
  8
PAPER
100
AcDbPolyline
 90
        3
 70
     0
 43
0.0
 10
0.5926789239769417
 20
3.158889475188256
 10
0.5546408826362017
 20
3.158889475188256
 10
0.554640882636202
 20
3.082707871389918
  0
LWPOLYLINE
  5
538
330
17
100
AcDbEntity
  8
PAPER
100
AcDbPolyline
 90
        3
 70
     0
 43
0.0
 10
0.554640882636202
 20
3.045207871389917
 10
0.5546408826362017
 20
2.97198684901433
 10
0.5926789239769417
 20
2.97198684901433
  0
LINE
  5
53D
330
17
100
AcDbEntity
  8
SL-TRACK
100
AcDbLine
 10
0.6208940487100403
 20
2.461799044787118
 30
0.0
 11
0.6208940487100403
 21
2.959663489086876
 31
0.0
  0
LWPOLYLINE
  5
53E
330
17
100
AcDbEntity
  8
PAPER
100
AcDbPolyline
 90
        3
 70
     0
 43
0.0
 10
4.066454809333057
 20
3.045207871389917
 10
4.066454809333057
 20
2.97198684901433
 10
4.028416767992316
 20
2.97198684901433
  0
LWPOLYLINE
  5
543
330
17
100
AcDbEntity
  8
PAPER
100
AcDbPolyline
 90
        3
 70
     0
 43
0.0
 10
4.028416767992316
 20
3.158889475188256
 10
4.066454809333057
 20
3.158889475188256
 10
4.066454809333057
 20
3.082707871389918
  0
CIRCLE
  5
548
330
17
100
AcDbEntity
  8
PAPER
100
AcDbCircle
 10
4.044955046836117
 20
3.129117375443737
 30
0.0
 40
0.0082700277068097
  0
CIRCLE
  5
549
330
17
100
AcDbEntity
  8
PAPER
100
AcDbCircle
 10
4.044955046836117
 20
3.000104943217486
 30
0.0
 40
0.0082700277068097
  0
LINE
  5
54A
330
17
100
AcDbEntity
  8
SL-TRACK
100
AcDbLine
 10
4.008634578756995
 20
2.461799044787118
 30
0.0
 11
4.008634578756995
 21
2.959663489086876
 31
0.0
  0
LINE
  5
54B
330
17
100
AcDbEntity
  8
SL-TRACK
100
AcDbLine
 10
4.000201643259218
 20
2.461799044787118
 30
0.0
 11
4.000201643259218
 21
2.959663489086876
 31
0.0
  0
LINE
  5
54C
330
17
100
AcDbEntity
  8
PAPER
100
AcDbLine
 10
3.964256420265121
 20
2.484721207694184
 30
0.0
 11
3.964256420265121
 21
2.974871698745939
 31
0.0
  0
LINE
  5
54D
330
17
100
AcDbEntity
  8
PAPER
100
AcDbLine
 10
3.964256420265121
 20
3.153044044033881
 30
0.0
 11
3.964256420265121
 21
3.330200087245924
 31
0.0
  0
LINE
  5
54E
330
17
100
AcDbEntity
  8
PAPER
100
AcDbLine
 10
3.964256420265121
 20
3.330200087245924
 30
0.0
 11
4.282086140194248
 21
3.330200087245924
 31
0.0
  0
TEXT
  5
54F
330
17
100
AcDbEntity
  8
PAPER
100
AcDbText
 10
0.4647830385307939
 20
2.303872759733944
 30
0.0
 40
0.07
  1
%%uSPRING PAD - BY OTHERS:
  7
ARIAL2
100
AcDbText
  0
TEXT
  5
550
330
17
100
AcDbEntity
  8
PAPER
100
AcDbText
 10
0.6420724794933568
 20
2.046988308119695
 30
0.0
 40
0.07
  1
STEEL - 10"W x 12"H x 1/4"
  7
ARIAL1
100
AcDbText
  0
TEXT
  5
551
330
17
100
AcDbEntity
  8
PAPER
100
AcDbText
 10
0.6420724794933568
 20
1.783282913299475
 30
0.0
 40
0.07
  1
WOOD - 2" x 6" LUMBER x 12"
  7
ARIAL1
100
AcDbText
  0
INSERT
  5
552
330
17
100
AcDbEntity
  8
PAPER
100
AcDbBlockReference
  2
RECT
 10
0.4965497281705389
 20
2.03522440517313
 30
0.0
 41
0.09375
 42
0.09375
 43
0.09375
  0
INSERT
  5
553
330
17
100
AcDbEntity
  8
PAPER
100
AcDbBlockReference
  2
RECT
 10
0.4965497281705389
 20
1.772007269410901
 30
0.0
 41
0.09375
 42
0.09375
 43
0.09375
  0
SOLID
  5
554
330
17
100
AcDbEntity
  8
PAPER
100
AcDbTrace
 10
2.225063900350548
 20
2.804411447124111
 30
0.0
 11
2.246847817149952
 21
2.796050501404812
 31
0.0
 12
2.261038695908148
 22
2.865582724662676
 32
0.0
 13
2.261038695908148
 23
2.865582724662676
 33
0.0
  0
LINE
  5
555
330
17
100
AcDbEntity
  8
PAPER
100
AcDbLine
 10
2.235955858750251
 20
2.800230974264462
 30
0.0
 11
2.058730876607763
 21
2.338482459756517
 31
0.0
  0
LINE
  5
556
330
17
100
AcDbEntity
  8
PAPER
100
AcDbLine
 10
2.058730876607763
 20
2.338482459756517
 30
0.0
 11
1.988730876607764
 21
2.338482459756517
 31
0.0
  0
TEXT
  5
557
330
17
100
AcDbEntity
  8
PAPER
100
AcDbText
 10
0.7475628634428585
 20
7.444444799756666
 30
0.0
 40
0.0772617904630487
  1
%%uHEADROOM REQUIREMENTS:
  7
ARIAL2
 72
     1
 11
1.53609690771853
 21
7.444444799756666
 31
0.0
100
AcDbText
  0
SOLID
  5
558
330
17
100
AcDbEntity
  8
PAPER
100
AcDbTrace
 10
2.603939413909757
 20
2.928934902788093
 30
0.0
 11
2.625893453520028
 21
2.936838357047791
 31
0.0
 12
2.5912060709358
 22
2.998748748748753
 32
0.0
 13
2.5912060709358
 23
2.998748748748753
 33
0.0
  0
LINE
  5
559
330
17
100
AcDbEntity
  8
PAPER
100
AcDbLine
 10
2.614916433714893
 20
2.932886629917942
 30
0.0
 11
2.71294943592241
 21
2.660572734897062
 31
0.0
  0
LINE
  5
55A
330
17
100
AcDbEntity
  8
PAPER
100
AcDbLine
 10
2.712949435922409
 20
2.660572734897062
 30
0.0
 11
2.782949435922408
 21
2.660572734897062
 31
0.0
  0
SOLID
  5
55B
330
17
100
AcDbEntity
  8
PAPER
100
AcDbTrace
 10
0.965917419048506
 20
3.180082254067989
 30
0.0
 11
0.9445077877912744
 21
3.189359760946122
 31
0.0
 12
0.9273800827854891
 22
3.120492113735361
 32
0.0
 13
0.9273800827854891
 23
3.120492113735361
 33
0.0
  0
LINE
  5
55C
330
17
100
AcDbEntity
  8
PAPER
100
AcDbLine
 10
0.9552126034198904
 20
3.184721007507056
 30
0.0
 11
1.103231609988367
 21
3.526303330357388
 31
0.0
  0
LINE
  5
55D
330
17
100
AcDbEntity
  8
PAPER
100
AcDbLine
 10
1.103231609988367
 20
3.526303330357388
 30
0.0
 11
1.173231609988367
 21
3.526303330357388
 31
0.0
  0
TEXT
  5
55E
330
17
100
AcDbEntity
  8
PAPER
100
AcDbText
 10
1.243231609988367
 20
3.491303330357388
 30
0.0
 40
0.07
  1
1" O.D. SHAFT:
  7
ARIAL1
100
AcDbText
  0
SOLID
  5
55F
330
17
100
AcDbEntity
  8
PAPER
100
AcDbTrace
 10
3.819539955756171
 20
3.270756921162329
 30
0.0
 11
3.79800149421771
 21
3.261782562187971
 31
0.0
 12
3.835693801910018
 22
3.201654357059766
 32
0.0
 13
3.835693801910018
 23
3.201654357059766
 33
0.0
  0
LINE
  5
560
330
17
100
AcDbEntity
  8
PAPER
100
AcDbLine
 10
3.808770724986941
 20
3.26626974167515
 30
0.0
 11
3.700423396369342
 21
3.526303330357388
 31
0.0
  0
LINE
  5
561
330
17
100
AcDbEntity
  8
PAPER
100
AcDbLine
 10
3.700423396369342
 20
3.526303330357388
 30
0.0
 11
3.630423396369342
 21
3.526303330357388
 31
0.0
  0
TEXT
  5
562
330
17
100
AcDbEntity
  8
PAPER
100
AcDbText
 10
2.883756729702676
 20
3.491303330357388
 30
0.0
 40
0.07
  1
CABLE DRUM:
  7
ARIAL1
100
AcDbText
  0
TEXT
  5
563
330
17
100
AcDbEntity
  8
PAPER
100
AcDbText
 10
2.852949435922409
 20
2.627184916504429
 30
0.0
 40
0.07
  1
%%uTORSION SPRINGS:
  7
ARIAL2
100
AcDbText
  0
SOLID
  5
564
330
17
100
AcDbEntity
  8
PAPER
100
AcDbTrace
 10
2.279104788126176
 20
3.281183060564057
 30
0.0
 11
2.256289398464369
 21
3.286072072634444
 31
0.0
 12
2.253030057084111
 22
3.215181397613831
 32
0.0
 13
2.253030057084111
 23
3.215181397613831
 33
0.0
  0
LINE
  5
565
330
17
100
AcDbEntity
  8
PAPER
100
AcDbLine
 10
2.267697093295272
 20
3.28362756659925
 30
0.0
 11
2.374773422070719
 21
3.783317100884669
 31
0.0
  0
LINE
  5
566
330
17
100
AcDbEntity
  8
PAPER
100
AcDbLine
 10
2.374773422070719
 20
3.783317100884669
 30
0.0
 11
2.44477342207072
 21
3.783317100884669
 31
0.0
  0
TEXT
  5
567
330
17
100
AcDbEntity
  8
PAPER
100
AcDbText
 10
2.514773422070719
 20
3.748317100884669
 30
0.0
 40
0.07
  1
CENTER SUPPORT BRACKET:
  7
ARIAL1
100
AcDbText
  0
TEXT
  5
568
330
17
100
AcDbEntity
  8
PAPER
100
AcDbText
 10
0.4647830385307939
 20
2.187206093067278
 30
0.0
 40
0.07
  1
(PADS MUST BE FLUSH WITH JAMBS)
  7
ARIAL1
100
AcDbText
  0
TEXT
  5
56A
330
17
100
AcDbEntity
  8
PAPER
100
AcDbText
 10
6.509897109628866
 20
1.308596491047623
 30
0.0
 40
0.06
  1
OPERATOR MODEL #:
  7
ARIAL1
100
AcDbText
  0
TEXT
  5
56B
330
17
100
AcDbEntity
  8
PAPER
100
AcDbText
 10
6.508695751879605
 20
0.885563371356635
 30
0.0
 40
0.06
  1
BACK ROOM:
  7
ARIAL1
100
AcDbText
  0
TEXT
  5
56C
330
17
100
AcDbEntity
  8
PAPER
100
AcDbText
 10
8.146669016671044
 20
0.8774281021186936
 30
0.0
 40
0.06
  1
HEADROOM REQUIREMENT:
  7
ARIAL1
100
AcDbText
  0
TEXT
  5
56D
330
17
100
AcDbEntity
  8
SL-TRACK
100
AcDbText
 10
10.4313323451212
 20
3.38626438578788
 30
0.0
 40
0.07
  1
DOOR HEIGHT + 7"
 50
90.0
  7
ARIAL1
 72
     4
 11
10.39630847063279
 21
3.831523594519122
 31
0.0
100
AcDbText
  0
SOLID
  5
56E
330
17
100
AcDbEntity
  8
PAPER
100
AcDbTrace
 10
4.115838455099817
 20
3.228362472121174
 30
0.0
 11
4.094825326098643
 21
3.238506083609422
 31
0.0
 12
4.074901056134487
 22
3.170394890861779
 32
0.0
 13
4.074901056134487
 23
3.170394890861779
 33
0.0
  0
LINE
  5
56F
330
17
100
AcDbEntity
  8
PAPER
100
AcDbLine
 10
4.105331890599231
 20
3.233434277865298
 30
0.0
 11
4.292970193699938
 21
3.622138820935046
 31
0.0
  0
LINE
  5
570
330
17
100
AcDbEntity
  8
PAPER
100
AcDbLine
 10
4.292970193699938
 20
3.622138820935046
 30
0.0
 11
4.362970193699938
 21
3.622138820935046
 31
0.0
  0
TEXT
  5
571
330
17
100
AcDbEntity
  8
PAPER
100
AcDbText
 10
4.432970193699938
 20
3.587138820935046
 30
0.0
 40
0.07
  1
END BEARING
  7
ARIAL1
100
AcDbText
  0
TEXT
  5
572
330
17
100
AcDbEntity
  8
PAPER
100
AcDbText
 10
4.432970193699938
 20
3.47047215426838
 30
0.0
 40
0.07
  1
PLATE:
  7
ARIAL1
100
AcDbText
  0
TEXT
  5
573
330
17
100
AcDbEntity
  8
PAPER
100
AcDbText
 10
0.4207163244325405
 20
6.060689574709843
 30
0.0
 40
0.07
  1
DOUBLE SHAFTS REQUIRE 12" ADDITIONAL HEADROOM
  7
ARIAL1
100
AcDbText
  0
TEXT
  5
574
330
17
100
AcDbEntity
  8
PAPER
100
AcDbText
 10
0.4305629203739651
 20
6.336633828768004
 30
0.0
 40
0.07
  1
6" SPRINGS REQUIRE 2" ADDITIONAL HEADROOM
  7
ARIAL1
100
AcDbText
  0
TEXT
  5
575
330
17
100
AcDbEntity
  8
PAPER
100
AcDbText
 10
0.4253264868029527
 20
6.195256888813729
 30
0.0
 40
0.07
  1
TROLLEY OPERATORS REQUIRE 4" ADDITIONAL HEADROOM
  7
ARIAL1
100
AcDbText
  0
LINE
  5
577
330
17
100
AcDbEntity
  8
PAPER
100
AcDbLine
 10
7.489674588168658
 20
1.294717702823786
 30
0.0
 11
8.077706179415516
 21
1.294717702823786
 31
0.0
  0
LINE
  5
578
330
17
100
AcDbEntity
  8
PAPER
100
AcDbLine
 10
7.095947728822606
 20
0.866776702734977
 30
0.0
 11
8.076504821666254
 21
0.866776702734977
 31
0.0
  0
LINE
  5
57A
330
17
100
AcDbEntity
  8
PAPER
100
AcDbLine
 10
10.11227034331282
 20
5.656661904661985
 30
0.0
 11
10.24049773744373
 21
5.656661904661985
 31
0.0
  0
LINE
  5
57B
330
17
100
AcDbEntity
  8
PAPER
100
AcDbLine
 10
10.33025691333537
 20
5.656661904661985
 30
0.0
 11
10.54900599461664
 21
5.656661904661985
 31
0.0
  0
INSERT
  5
57C
330
17
100
AcDbEntity
  8
SL-TRACK
100
AcDbBlockReference
  2
RECT
 10
4.182811975116626
 20
5.336626104682975
 30
0.0
 41
0.09375
 42
0.09375
 43
0.09375
  0
TEXT
  5
57D
330
17
100
AcDbEntity
  8
SL-TRACK
100
AcDbText
 10
4.342478152491493
 20
5.349496144015533
 30
0.0
 40
0.07
  1
BY OTHERS
  7
ARIAL1
100
AcDbText
  0
TEXT
  5
57E
330
17
100
AcDbEntity
  8
SL-TRACK
100
AcDbText
 10
4.342478152491493
 20
4.531673723355882
 30
0.0
 40
0.07
  1
BY OTHERS
  7
ARIAL1
100
AcDbText
  0
INSERT
  5
57F
330
17
100
AcDbEntity
  8
SL-TRACK
100
AcDbBlockReference
  2
RECT
 10
4.182811975116626
 20
4.518803684023323
 30
0.0
 41
0.09375
 42
0.09375
 43
0.09375
  0
INSERT
  5
580
330
17
100
AcDbEntity
  8
SL-TRACK
100
AcDbBlockReference
  2
RECT
 10
4.182811975116626
 20
4.831219321577648
 30
0.0
 41
0.09375
 42
0.09375
 43
0.09375
  0
INSERT
  5
581
330
17
100
AcDbEntity
  8
SL-TRACK
100
AcDbBlockReference
  2
RECT
 10
4.182811975116626
 20
4.675011502800486
 30
0.0
 41
0.09375
 42
0.09375
 43
0.09375
  0
TEXT
  5
582
330
17
100
AcDbEntity
  8
SL-TRACK
100
AcDbText
 10
4.342478152491493
 20
4.843227219360399
 30
0.0
 40
0.07
  1
YES
  7
ARIAL1
100
AcDbText
  0
TEXT
  5
583
330
17
100
AcDbEntity
  8
SL-TRACK
100
AcDbText
 10
4.342478152491493
 20
4.687881542133045
 30
0.0
 40
0.07
  1
NO
  7
ARIAL1
100
AcDbText
  0
TEXT
  5
584
330
17
100
AcDbEntity
  8
SL-TRACK
100
AcDbText
 10
4.164572326030949
 20
5.114588212862608
 30
0.0
 40
0.07
  1
%%uREINFORCING KIT
  7
ARIAL2
100
AcDbText
  0
TEXT
  5
585
330
17
100
AcDbEntity
  8
SL-TRACK
100
AcDbText
 10
4.164572326030949
 20
4.997921546195942
 30
0.0
 40
0.07
  1
ATTACHES TO DOOR
  7
ARIAL1
100
AcDbText
  0
TEXT
  5
586
330
17
100
AcDbEntity
  8
PAPER
100
AcDbText
 10
10.64138748272648
 20
5.863415412181716
 30
0.0
 40
0.07
  1
SEE TABLE
 50
90.0
  7
ARIAL1
100
AcDbText
  0
TEXT
  5
587
330
17
100
AcDbEntity
  8
PAPER
100
AcDbText
 10
0.6420724794933568
 20
1.934034029079904
 30
0.0
 40
0.07
  1
FOR USE WITH STEEL JAMBS
  7
ARIAL1
100
AcDbText
  0
TEXT
  5
588
330
17
100
AcDbEntity
  8
PAPER
100
AcDbText
 10
0.6420724794933568
 20
1.670328634259683
 30
0.0
 40
0.07
  1
FOR USE WITH WOOD JAMBS
  7
ARIAL1
100
AcDbText
  0
TEXT
  5
589
330
17
100
AcDbEntity
  8
PAPER
100
AcDbText
 10
6.509897109628866
 20
1.090907856354502
 30
0.0
 40
0.06
  1
OPERATOR BACKROOM:
  7
ARIAL1
100
AcDbText
  0
LINE
  5
58A
330
17
100
AcDbEntity
  8
PAPER
100
AcDbLine
 10
7.556436226335067
 20
1.077029068130666
 30
0.0
 11
8.077706179415516
 21
1.077029068130666
 31
0.0
  0
TEXT
  5
58B
330
17
100
AcDbEntity
  8
PAPER
100
AcDbText
 10
8.146669016671044
 20
1.087979404526793
 30
0.0
 40
0.06
  1
AVAILABLE HEADROOM:
  7
ARIAL1
100
AcDbText
  0
LINE
  5
58C
330
17
100
AcDbEntity
  8
PAPER
100
AcDbLine
 10
9.165860937491798
 20
1.076900710995393
 30
0.0
 11
9.676166333712226
 21
1.076900710995393
 31
0.0
  0
LINE
  5
58D
330
17
100
AcDbEntity
  8
PAPER
100
AcDbLine
 10
9.597622307173324
 20
6.171947042968183
 30
0.0
 11
9.597622307173326
 21
6.123168642851088
 31
0.0
  0
LINE
  5
58E
330
17
100
AcDbEntity
  8
PAPER
100
AcDbLine
 10
9.391142349929967
 20
6.186012389669048
 30
0.0
 11
9.391142349929967
 21
6.123168642851087
 31
0.0
  0
LINE
  5
58F
330
17
100
AcDbEntity
  8
PAPER
100
AcDbLine
 10
9.366486582826297
 20
0.8663494085872935
 30
0.0
 11
9.679734902916564
 21
0.8663494085872935
 31
0.0
  0
LINE
  5
590
330
17
100
AcDbEntity
  8
0
  6
ByBlock
 62
     0
100
AcDbLine
 10
8.943045642308806
 20
6.028799129343001
 30
0.0
 11
10.34809214620025
 21
6.028799129343001
 31
0.0
  0
LINE
  5
591
330
17
100
AcDbEntity
  8
0
  6
ByBlock
 62
     0
100
AcDbLine
 10
10.14617025244187
 20
1.634248059695244
 30
0.0
 11
10.34809214620025
 21
1.634248059695244
 31
0.0
  0
LINE
  5
592
330
17
100
AcDbEntity
  8
0
  6
ByBlock
 62
     0
100
AcDbLine
 10
10.28809214620025
 20
5.958799129343001
 30
0.0
 11
10.28809214620025
 21
4.531523594519122
 31
0.0
  0
LINE
  5
593
330
17
100
AcDbEntity
  8
0
  6
ByBlock
 62
     0
100
AcDbLine
 10
10.28809214620025
 20
1.704248059695244
 30
0.0
 11
10.28809214620025
 21
3.131523594519122
 31
0.0
  0
SOLID
  5
594
330
17
100
AcDbEntity
  8
0
  6
ByBlock
 62
     0
100
AcDbTrace
 10
10.29975881286692
 20
5.958799129343001
 30
0.0
 11
10.27642547953359
 21
5.958799129343001
 31
0.0
 12
10.28809214620025
 22
6.028799129343001
 32
0.0
 13
10.28809214620025
 23
6.028799129343001
 33
0.0
  0
SOLID
  5
595
330
17
100
AcDbEntity
  8
0
  6
ByBlock
 62
     0
100
AcDbTrace
 10
10.29975881286692
 20
1.704248059695244
 30
0.0
 11
10.27642547953359
 21
1.704248059695244
 31
0.0
 12
10.28809214620025
 22
1.634248059695244
 32
0.0
 13
10.28809214620025
 23
1.634248059695244
 33
0.0
  0
TEXT
  5
596
330
17
100
AcDbEntity
  8
0
  6
ByBlock
 62
     0
100
AcDbText
 10
10.32309214620025
 20
3.201523594519123
 30
0.0
 40
0.07
  1
OVERHEAD CLEARANCE
 50
90.0
  7
ARIAL1
100
AcDbText
  0
POINT
  5
597
330
17
100
AcDbEntity
  8
DEFPOINTS
  6
ByBlock
 62
     0
100
AcDbPoint
 10
8.853045642308806
 20
6.028799129343001
 30
0.0
  0
POINT
  5
598
330
17
100
AcDbEntity
  8
DEFPOINTS
  6
ByBlock
 62
     0
100
AcDbPoint
 10
10.05617025244187
 20
1.634248059695244
 30
0.0
  0
POINT
  5
599
330
17
100
AcDbEntity
  8
DEFPOINTS
  6
ByBlock
 62
     0
100
AcDbPoint
 10
10.28809214620025
 20
1.634248059695244
 30
0.0
  0
INSERT
  5
59A
330
17
100
AcDbEntity
  8
PAPER
100
AcDbBlockReference
  2
12393
 10
0.1385890701601415
 20
0.6953545816086355
 30
0.0
  0
TEXT
  5
5A9
330
17
100
AcDbEntity
  8
PAPER
100
AcDbText
 10
10.22236272441798
 20
0.583085490217286
 30
0.0
 40
0.056
  1
REV. MAY 2011
  7
ARIAL1
 72
     2
 11
10.7919889181424
 21
0.583085490217286
 31
0.0
100
AcDbText
  0
TEXT
  5
5C2
330
17
100
AcDbEntity
  8
PAPER
100
AcDbText
 10
0.4417650552831268
 20
4.382890604396539
 30
0.0
 40
0.07
  1
SPRING SIZE AND CONFIGURATION INDIVIDUALLY CALCULATED
  7
ARIAL1
100
AcDbText
  0
TEXT
  5
5C3
330
17
100
AcDbEntity
  8
PAPER
100
AcDbText
 10
0.4417650552831268
 20
4.270441764014547
 30
0.0
 40
0.07
  1
TO COUNTERBALANCE DOOR LOAD.  AN EXACT SPRING LAYOUT
  7
ARIAL1
100
AcDbText
  0
TEXT
  5
5C4
330
17
100
AcDbEntity
  8
PAPER
100
AcDbText
 10
0.4417650552831268
 20
4.157992923632555
 30
0.0
 40
0.07
  1
CAN BE FURNISHED UPON APPROVAL OF BID.  SOME DOORS
  7
ARIAL1
100
AcDbText
  0
TEXT
  5
5C5
330
17
100
AcDbEntity
  8
PAPER
100
AcDbText
 10
0.4417650552831268
 20
4.045544083250563
 30
0.0
 40
0.07
  1
MAY REQUIRE 6" SPRINGS OR DOUBLE SHAFTS.
  7
ARIAL1
100
AcDbText
  0
LINE
  5
5EC
330
17
100
AcDbEntity
  8
SL-TRACK
100
AcDbLine
 10
6.777020669081026
 20
5.938799129343001
 30
0.0
 11
6.777020669081026
 21
4.795388252293561
 31
0.0
  0
LINE
  5
5ED
330
17
100
AcDbEntity
  8
SL-TRACK
100
AcDbLine
 10
9.720634204413119
 20
4.475269583249076
 30
0.0
 11
9.720634204413119
 21
4.91538825229356
 31
0.0
  0
LINE
  5
5EE
330
17
100
AcDbEntity
  8
SL-TRACK
100
AcDbLine
 10
6.847020669081026
 20
4.855388252293559
 30
0.0
 11
7.907534235093828
 21
4.855388252293559
 31
0.0
  0
LINE
  5
5EF
330
17
100
AcDbEntity
  8
SL-TRACK
100
AcDbLine
 10
9.650634204413119
 20
4.855388252293559
 30
0.0
 11
8.597112020833792
 21
4.855388252293559
 31
0.0
  0
SOLID
  5
5F0
330
17
100
AcDbEntity
  8
SL-TRACK
100
AcDbTrace
 10
6.847020669081026
 20
4.843721585626893
 30
0.0
 11
6.847020669081026
 21
4.867054918960226
 31
0.0
 12
6.777020669081026
 22
4.855388252293559
 32
0.0
 13
6.777020669081026
 23
4.855388252293559
 33
0.0
  0
SOLID
  5
5F1
330
17
100
AcDbEntity
  8
SL-TRACK
100
AcDbTrace
 10
9.650634204413119
 20
4.843721585626893
 30
0.0
 11
9.650634204413119
 21
4.867054918960226
 31
0.0
 12
9.720634204413119
 22
4.855388252293559
 32
0.0
 13
9.720634204413119
 23
4.855388252293559
 33
0.0
  0
TEXT
  5
5F2
330
17
100
AcDbEntity
  8
SL-TRACK
100
AcDbText
 10
7.960493334649068
 20
4.820388252293559
 30
0.0
 40
0.07
  1
BACK ROOM
  7
ARIAL1
100
AcDbText
  0
LINE
  5
5F3
330
17
100
AcDbEntity
  8
SL-TRACK
100
AcDbLine
 10
5.444277374735029
 20
6.06301581442343
 30
0.0
 11
5.444277374735029
 21
4.227697784013431
 31
0.0
  0
LINE
  5
5F4
330
17
100
AcDbEntity
  8
SL-TRACK
100
AcDbLine
 10
9.720634204413123
 20
4.093852549873364
 30
0.0
 11
9.720634204413123
 21
4.34769778401343
 31
0.0
  0
LINE
  5
5F5
330
17
100
AcDbEntity
  8
SL-TRACK
100
AcDbLine
 10
5.514277374735029
 20
4.287697784013429
 30
0.0
 11
6.929122456240743
 21
4.287697784013429
 31
0.0
  0
LINE
  5
5F6
330
17
100
AcDbEntity
  8
SL-TRACK
100
AcDbLine
 10
9.650634204413123
 20
4.287697784013429
 30
0.0
 11
8.23578912290741
 21
4.287697784013429
 31
0.0
  0
SOLID
  5
5F7
330
17
100
AcDbEntity
  8
SL-TRACK
100
AcDbTrace
 10
5.514277374735029
 20
4.276031117346763
 30
0.0
 11
5.514277374735029
 21
4.299364450680096
 31
0.0
 12
5.444277374735029
 22
4.287697784013429
 32
0.0
 13
5.444277374735029
 23
4.287697784013429
 33
0.0
  0
SOLID
  5
5F8
330
17
100
AcDbEntity
  8
SL-TRACK
100
AcDbTrace
 10
9.650634204413123
 20
4.276031117346763
 30
0.0
 11
9.650634204413123
 21
4.299364450680096
 31
0.0
 12
9.720634204413123
 22
4.287697784013429
 32
0.0
 13
9.720634204413123
 23
4.287697784013429
 33
0.0
  0
TEXT
  5
5F9
330
17
100
AcDbEntity
  8
SL-TRACK
100
AcDbText
 10
6.999122456240742
 20
4.252697784013429
 30
0.0
 40
0.07
  1
OPERATOR BACKROOM
  7
ARIAL1
100
AcDbText
  0
LINE
  5
5FA
330
17
100
AcDbEntity
  8
PAPER
100
AcDbLine
 10
9.534268025901219
 20
6.668776939888249
 30
0.0
 11
10.55130366725773
 21
6.668776939888249
 31
0.0
  0
LINE
  5
5FB
330
17
100
AcDbEntity
  8
PAPER
100
AcDbLine
 10
10.49130366725773
 20
5.73068063604025
 30
0.0
 11
10.49130366725773
 21
5.826395454630916
 31
0.0
  0
LINE
  5
5FC
330
17
100
AcDbEntity
  8
PAPER
100
AcDbLine
 10
10.49130366725773
 20
6.598776939888248
 30
0.0
 11
10.49130366725773
 21
6.503062121297582
 31
0.0
  0
SOLID
  5
5FD
330
17
100
AcDbEntity
  8
PAPER
100
AcDbTrace
 10
10.50297033392439
 20
5.73068063604025
 30
0.0
 11
10.47963700059106
 21
5.73068063604025
 31
0.0
 12
10.49130366725773
 22
5.660680636040249
 32
0.0
 13
10.49130366725773
 23
5.660680636040249
 33
0.0
  0
SOLID
  5
5FE
330
17
100
AcDbEntity
  8
PAPER
100
AcDbTrace
 10
10.50297033392439
 20
6.598776939888248
 30
0.0
 11
10.47963700059106
 21
6.598776939888248
 31
0.0
 12
10.49130366725773
 22
6.668776939888249
 32
0.0
 13
10.49130366725773
 23
6.668776939888249
 33
0.0
  0
TEXT
  5
5FF
330
17
100
AcDbEntity
  8
PAPER
100
AcDbText
 10
10.52630366725773
 20
5.896395454630916
 30
0.0
 40
0.07
  1
HEADROOM
 50
90.0
  7
ARIAL1
100
AcDbText
  0
TEXT
  5
627
330
17
100
AcDbEntity
  8
PAPER
100
AcDbText
 10
0.3763044506848101
 20
8.027027809332949
 30
0.0
 40
0.125
  1
%%USTANDARD LIFT TRACK
  7
ARIALB
 72
     1
 11
1.525988966373759
 21
8.027027809332949
 31
0.0
100
AcDbText
  0
SOLID
  5
68F
330
17
100
AcDbEntity
  8
PAPER
100
AcDbTrace
 10
4.266919189126545
 20
2.984319851720801
 30
0.0
 11
4.245906060125371
 21
2.974176240232553
 31
0.0
 12
4.225981790161215
 22
3.042287432980196
 32
0.0
 13
4.225981790161215
 23
3.042287432980196
 33
0.0
  0
LINE
  5
690
330
17
100
AcDbEntity
  8
PAPER
100
AcDbLine
 10
4.256412624625959
 20
2.979248045976677
 30
0.0
 11
4.444050927726665
 21
2.590543502906929
 31
0.0
  0
LINE
  5
691
330
17
100
AcDbEntity
  8
PAPER
100
AcDbLine
 10
4.444050927726665
 20
2.590543502906929
 30
0.0
 11
4.514050927726666
 21
2.590543502906929
 31
0.0
  0
TEXT
  5
692
330
17
100
AcDbEntity
  8
PAPER
100
AcDbText
 10
4.540519166698738
 20
2.558103293652323
 30
0.0
 40
0.07
  1
SHAFT CENTERLINE = DH +14" 
  7
ARIAL1
100
AcDbText
  0
ENDSEC
  0
SECTION
  2
OBJECTS
  0
DICTIONARY
  5
C
330
0
100
AcDbDictionary
281
     1
  3
ACAD_COLOR
350
66E
  3
ACAD_GROUP
350
D
  3
ACAD_LAYOUT
350
5B6
  3
ACAD_MATERIAL
350
63C
  3
ACAD_MLEADERSTYLE
350
683
  3
ACAD_MLINESTYLE
350
1A
  3
ACAD_PLOTSETTINGS
350
5B7
  3
ACAD_PLOTSTYLENAME
350
5B4
  3
ACAD_SCALELIST
350
671
  3
ACAD_TABLESTYLE
350
66F
  3
ACAD_VISUALSTYLE
350
655
  3
ACDB_RECOMPOSE_DATA
350
6F8
  3
ACDBVARIABLEDICTIONARY
350
35
  0
DICTIONARY
  5
6AA
330
2
100
AcDbDictionary
280
     1
281
     1
  3
ACAD_LAYERSTATES
360
6AB
  0
DICTIONARY
  5
696
330
E
100
AcDbDictionary
280
     1
281
     1
  3
ADSK_XREC_LAYER_RECONCILED
360
697
  0
DICTIONARY
  5
698
330
2A
100
AcDbDictionary
280
     1
281
     1
  3
ADSK_XREC_LAYER_RECONCILED
360
699
  0
DICTIONARY
  5
69A
330
2D
100
AcDbDictionary
280
     1
281
     1
  3
ADSK_XREC_LAYER_RECONCILED
360
69B
  0
DICTIONARY
  5
69C
330
30
100
AcDbDictionary
280
     1
281
     1
  3
ADSK_XREC_LAYER_RECONCILED
360
69D
  0
DICTIONARY
  5
66E
102
{ACAD_REACTORS
330
C
102
}
330
C
100
AcDbDictionary
281
     1
  0
DICTIONARY
  5
D
102
{ACAD_REACTORS
330
C
102
}
330
C
100
AcDbDictionary
281
     1
  0
DICTIONARY
  5
5B6
102
{ACAD_REACTORS
330
C
102
}
330
C
100
AcDbDictionary
281
     1
  3
Layout1
350
5B9
  3
Model
350
5B8
  0
DICTIONARY
  5
63C
102
{ACAD_REACTORS
330
C
102
}
330
C
100
AcDbDictionary
281
     1
  3
ByBlock
350
645
  3
ByLayer
350
63D
  3
Global
350
64D
  0
DICTIONARY
  5
683
102
{ACAD_REACTORS
330
C
102
}
330
C
100
AcDbDictionary
281
     1
  3
Standard
350
684
  0
DICTIONARY
  5
1A
102
{ACAD_REACTORS
330
C
102
}
330
C
100
AcDbDictionary
281
     1
  3
STANDARD
350
1B
  0
DICTIONARY
  5
5B7
102
{ACAD_REACTORS
330
C
102
}
330
C
100
AcDbDictionary
281
     1
  0
ACDBDICTIONARYWDFLT
  5
5B4
102
{ACAD_REACTORS
330
C
102
}
330
C
100
AcDbDictionary
281
     1
  3
Normal
350
5B5
100
AcDbDictionaryWithDefault
340
5B5
  0
DICTIONARY
  5
671
102
{ACAD_REACTORS
330
C
102
}
330
C
100
AcDbDictionary
281
     1
  3
A0
350
672
  3
A1
350
673
  3
A2
350
674
  3
A3
350
675
  3
A4
350
676
  3
A5
350
677
  3
A6
350
678
  3
A7
350
679
  3
A8
350
67A
  3
A9
350
67B
  3
B0
350
67C
  3
B1
350
67D
  3
B2
350
67E
  3
B3
350
67F
  3
B4
350
680
  3
B5
350
681
  3
B6
350
682
  0
DICTIONARY
  5
66F
102
{ACAD_REACTORS
330
C
102
}
330
C
100
AcDbDictionary
281
     1
  3
Standard
350
670
  0
DICTIONARY
  5
655
102
{ACAD_REACTORS
330
C
102
}
330
C
100
AcDbDictionary
281
     1
  3
2dWireframe
350
65B
  3
Basic
350
65A
  3
Brighten
350
661
  3
ColorChange
350
665
  3
Conceptual
350
65E
  3
Dim
350
660
  3
EdgeColorOff
350
66D
  3
Facepattern
350
664
  3
Flat
350
656
  3
FlatWithEdges
350
657
  3
Gouraud
350
658
  3
GouraudWithEdges
350
659
  3
Hidden
350
65D
  3
JitterOff
350
66B
  3
Linepattern
350
663
  3
OverhangOff
350
66C
  3
Realistic
350
65F
  3
Shaded
350
66A
  3
Shaded with edges
350
669
  3
Shades of Gray
350
666
  3
Sketchy
350
667
  3
Thicken
350
662
  3
Wireframe
350
65C
  3
X-Ray
350
668
  0
XRECORD
  5
6F8
102
{ACAD_REACTORS
330
C
102
}
330
C
100
AcDbXrecord
280
     1
 90
        1
330
670
  0
DICTIONARY
  5
35
102
{ACAD_REACTORS
330
C
102
}
330
C
100
AcDbDictionary
281
     1
  3
CANNOSCALE
350
6F1
  3
CMLEADERSTYLE
350
6EF
  3
CTABLESTYLE
350
6EE
  3
DIMADEC
350
36
  3
LAYEREVAL
350
6F3
  3
LAYERNOTIFY
350
6F4
  3
LIGHTINGUNITS
350
6F2
  3
MSLTSCALE
350
6F0
  3
XCLIPFRAME
350
6F5
  0
DICTIONARY
  5
6AB
102
{ACAD_REACTORS
330
6AA
102
}
330
6AA
100
AcDbDictionary
281
     1
  0
XRECORD
  5
697
102
{ACAD_REACTORS
330
696
102
}
330
696
100
AcDbXrecord
280
     1
290
     1
  0
XRECORD
  5
699
102
{ACAD_REACTORS
330
698
102
}
330
698
100
AcDbXrecord
280
     1
290
     1
  0
XRECORD
  5
69B
102
{ACAD_REACTORS
330
69A
102
}
330
69A
100
AcDbXrecord
280
     1
290
     1
  0
XRECORD
  5
69D
102
{ACAD_REACTORS
330
69C
102
}
330
69C
100
AcDbXrecord
280
     1
290
     1
  0
LAYOUT
  5
5B9
102
{ACAD_REACTORS
330
5B6
102
}
330
5B6
100
AcDbPlotSettings
  1

  2
\\CLOPAY\rus_engrec_pq
  4

  6

 40
0.0
 41
0.0
 42
0.0
 43
0.0
 44
0.0
 45
0.0
 46
0.0
 47
0.0
 48
0.0
 49
0.0
140
0.0
141
0.0
142
1.0
143
1.0
 70
   688
 72
     0
 73
     0
 74
     5
  7
monochrome.ctb
 75
    16
147
1.0
 76
     0
 77
     2
 78
   300
148
0.0
149
0.0
100
AcDbLayout
  1
Layout1
 70
     0
 71
     1
 10
0.0
 20
0.0
 11
12.0
 21
9.0
 12
0.0
 22
0.0
 32
0.0
 14
1.000000000000000E+20
 24
1.000000000000000E+20
 34
1.000000000000000E+20
 15
-1.000000000000000E+20
 25
-1.000000000000000E+20
 35
-1.000000000000000E+20
146
0.0
 13
0.0
 23
0.0
 33
0.0
 16
1.0
 26
0.0
 36
0.0
 17
0.0
 27
1.0
 37
0.0
 76
     0
330
14
  0
LAYOUT
  5
5B8
102
{ACAD_XDICTIONARY
360
6B0
102
}
102
{ACAD_REACTORS
330
5B6
102
}
330
5B6
100
AcDbPlotSettings
  1

  2
\\CLOPAY\rus_engrec_pq
  4
Letter
  6

 40
7.143749713897705
 41
6.127734661102294
 42
7.14373779296875
 43
7.14373779296875
 44
215.8999938964844
 45
279.3999938964844
 46
4.825999999999999
 47
0.0
 48
-0.2823720355306065
 49
0.6728502030634616
140
10.53684331736269
141
8.470018900025198
142
1.0
143
1.032614123709978
 70
 11956
 72
     0
 73
     1
 74
     4
  7
monochrome.ctb
 75
     0
147
0.9684159620122155
 76
     0
 77
     2
 78
   300
148
7.172249702477405
149
-17.09039515781192
100
AcDbLayout
  1
Model
 70
     1
 71
     0
 10
0.0
 20
0.0
 11
12.0
 21
9.0
 12
0.0
 22
0.0
 32
0.0
 14
0.0
 24
0.0
 34
0.0
 15
0.0
 25
0.0
 35
0.0
146
0.0
 13
0.0
 23
0.0
 33
0.0
 16
1.0
 26
0.0
 36
0.0
 17
0.0
 27
1.0
 37
0.0
 76
     0
330
17
331
63A
  0
MATERIAL
  5
645
102
{ACAD_XDICTIONARY
360
646
102
}
102
{ACAD_REACTORS
330
63C
102
}
330
63C
100
AcDbMaterial
  1
ByBlock
 72
     0
 43
0.0208333333333333
 43
0.0
 43
0.0
 43
0.0
 43
0.0
 43
0.0208333333333333
 43
0.0
 43
0.0
 43
0.0
 43
0.0
 43
1.0
 43
0.0
 43
0.0
 43
0.0
 43
0.0
 43
1.0
 77
     0
 47
0.0208333333333333
 47
0.0
 47
0.0
 47
0.0
 47
0.0
 47
0.0208333333333333
 47
0.0
 47
0.0
 47
0.0
 47
0.0
 47
1.0
 47
0.0
 47
0.0
 47
0.0
 47
0.0
 47
1.0
171
     0
 49
0.0208333333333333
 49
0.0
 49
0.0
 49
0.0
 49
0.0
 49
0.0208333333333333
 49
0.0
 49
0.0
 49
0.0
 49
0.0
 49
1.0
 49
0.0
 49
0.0
 49
0.0
 49
0.0
 49
1.0
175
     0
142
0.0208333333333333
142
0.0
142
0.0
142
0.0
142
0.0
142
0.0208333333333333
142
0.0
142
0.0
142
0.0
142
0.0
142
1.0
142
0.0
142
0.0
142
0.0
142
0.0
142
1.0
179
     0
144
0.0208333333333333
144
0.0
144
0.0
144
0.0
144
0.0
144
0.0208333333333333
144
0.0
144
0.0
144
0.0
144
0.0
144
1.0
144
0.0
144
0.0
144
0.0
144
0.0
144
1.0
147
0.0208333333333333
147
0.0
147
0.0
147
0.0
147
0.0
147
0.0208333333333333
147
0.0
147
0.0
147
0.0
147
0.0
147
1.0
147
0.0
147
0.0
147
0.0
147
0.0
147
1.0
  0
MATERIAL
  5
63D
102
{ACAD_XDICTIONARY
360
63E
102
}
102
{ACAD_REACTORS
330
63C
102
}
330
63C
100
AcDbMaterial
  1
ByLayer
 72
     0
 43
0.0208333333333333
 43
0.0
 43
0.0
 43
0.0
 43
0.0
 43
0.0208333333333333
 43
0.0
 43
0.0
 43
0.0
 43
0.0
 43
1.0
 43
0.0
 43
0.0
 43
0.0
 43
0.0
 43
1.0
 77
     0
 47
0.0208333333333333
 47
0.0
 47
0.0
 47
0.0
 47
0.0
 47
0.0208333333333333
 47
0.0
 47
0.0
 47
0.0
 47
0.0
 47
1.0
 47
0.0
 47
0.0
 47
0.0
 47
0.0
 47
1.0
171
     0
 49
0.0208333333333333
 49
0.0
 49
0.0
 49
0.0
 49
0.0
 49
0.0208333333333333
 49
0.0
 49
0.0
 49
0.0
 49
0.0
 49
1.0
 49
0.0
 49
0.0
 49
0.0
 49
0.0
 49
1.0
175
     0
142
0.0208333333333333
142
0.0
142
0.0
142
0.0
142
0.0
142
0.0208333333333333
142
0.0
142
0.0
142
0.0
142
0.0
142
1.0
142
0.0
142
0.0
142
0.0
142
0.0
142
1.0
179
     0
144
0.0208333333333333
144
0.0
144
0.0
144
0.0
144
0.0
144
0.0208333333333333
144
0.0
144
0.0
144
0.0
144
0.0
144
1.0
144
0.0
144
0.0
144
0.0
144
0.0
144
1.0
147
0.0208333333333333
147
0.0
147
0.0
147
0.0
147
0.0
147
0.0208333333333333
147
0.0
147
0.0
147
0.0
147
0.0
147
1.0
147
0.0
147
0.0
147
0.0
147
0.0
147
1.0
  0
MATERIAL
  5
64D
102
{ACAD_XDICTIONARY
360
64E
102
}
102
{ACAD_REACTORS
330
63C
102
}
330
63C
100
AcDbMaterial
  1
Global
 72
     0
 43
0.0208333333333333
 43
0.0
 43
0.0
 43
0.0
 43
0.0
 43
0.0208333333333333
 43
0.0
 43
0.0
 43
0.0
 43
0.0
 43
1.0
 43
0.0
 43
0.0
 43
0.0
 43
0.0
 43
1.0
 77
     0
 47
0.0208333333333333
 47
0.0
 47
0.0
 47
0.0
 47
0.0
 47
0.0208333333333333
 47
0.0
 47
0.0
 47
0.0
 47
0.0
 47
1.0
 47
0.0
 47
0.0
 47
0.0
 47
0.0
 47
1.0
171
     0
 49
0.0208333333333333
 49
0.0
 49
0.0
 49
0.0
 49
0.0
 49
0.0208333333333333
 49
0.0
 49
0.0
 49
0.0
 49
0.0
 49
1.0
 49
0.0
 49
0.0
 49
0.0
 49
0.0
 49
1.0
175
     0
142
0.0208333333333333
142
0.0
142
0.0
142
0.0
142
0.0
142
0.0208333333333333
142
0.0
142
0.0
142
0.0
142
0.0
142
1.0
142
0.0
142
0.0
142
0.0
142
0.0
142
1.0
179
     0
144
0.0208333333333333
144
0.0
144
0.0
144
0.0
144
0.0
144
0.0208333333333333
144
0.0
144
0.0
144
0.0
144
0.0
144
1.0
144
0.0
144
0.0
144
0.0
144
0.0
144
1.0
147
0.0208333333333333
147
0.0
147
0.0
147
0.0
147
0.0
147
0.0208333333333333
147
0.0
147
0.0
147
0.0
147
0.0
147
1.0
147
0.0
147
0.0
147
0.0
147
0.0
147
1.0
  0
MLEADERSTYLE
  5
684
102
{ACAD_REACTORS
330
683
102
}
330
683
100
AcDbMLeaderStyle
170
     2
171
     1
172
     0
 90
        2
 40
0.0
 41
0.0
173
     1
 91
-1056964608
340
11
 92
       -2
290
     1
 42
0.09
291
     1
 43
0.36
  3
Standard
 44
0.18
300

342
F
174
     1
178
     6
175
     1
176
     0
 93
-1056964608
 45
0.18
292
     0
297
     0
 46
0.18
 94
-1056964608
 47
1.0
 49
1.0
140
1.0
293
     1
141
0.0
294
     1
177
     0
142
1.0
295
     0
296
     0
143
0.125
1001
ACAD_MLEADERVER
1070
     2
  0
MLINESTYLE
  5
1B
102
{ACAD_REACTORS
330
1A
102
}
330
1A
100
AcDbMlineStyle
  2
STANDARD
 70
     0
  3

 62
   256
 51
90.0
 52
90.0
 71
     2
 49
0.5
 62
   256
  6
BYLAYER
 49
-0.5
 62
   256
  6
BYLAYER
  0
ACDBPLACEHOLDER
  5
5B5
102
{ACAD_REACTORS
330
5B4
102
}
330
5B4
  0
SCALE
  5
672
102
{ACAD_REACTORS
330
671
102
}
330
671
100
AcDbScale
 70
     0
300
1:1
140
1.0
141
1.0
290
     1
  0
SCALE
  5
673
102
{ACAD_REACTORS
330
671
102
}
330
671
100
AcDbScale
 70
     0
300
1/128" = 1'-0"
140
0.0078125
141
12.0
290
     0
  0
SCALE
  5
674
102
{ACAD_REACTORS
330
671
102
}
330
671
100
AcDbScale
 70
     0
300
1/64" = 1'-0"
140
0.015625
141
12.0
290
     0
  0
SCALE
  5
675
102
{ACAD_REACTORS
330
671
102
}
330
671
100
AcDbScale
 70
     0
300
1/32" = 1'-0"
140
0.03125
141
12.0
290
     0
  0
SCALE
  5
676
102
{ACAD_REACTORS
330
671
102
}
330
671
100
AcDbScale
 70
     0
300
1/16" = 1'-0"
140
0.0625
141
12.0
290
     0
  0
SCALE
  5
677
102
{ACAD_REACTORS
330
671
102
}
330
671
100
AcDbScale
 70
     0
300
3/32" = 1'-0"
140
0.09375
141
12.0
290
     0
  0
SCALE
  5
678
102
{ACAD_REACTORS
330
671
102
}
330
671
100
AcDbScale
 70
     0
300
1/8" = 1'-0"
140
0.125
141
12.0
290
     0
  0
SCALE
  5
679
102
{ACAD_REACTORS
330
671
102
}
330
671
100
AcDbScale
 70
     0
300
3/16" = 1'-0"
140
0.1875
141
12.0
290
     0
  0
SCALE
  5
67A
102
{ACAD_REACTORS
330
671
102
}
330
671
100
AcDbScale
 70
     0
300
1/4" = 1'-0"
140
0.25
141
12.0
290
     0
  0
SCALE
  5
67B
102
{ACAD_REACTORS
330
671
102
}
330
671
100
AcDbScale
 70
     0
300
3/8" = 1'-0"
140
0.375
141
12.0
290
     0
  0
SCALE
  5
67C
102
{ACAD_REACTORS
330
671
102
}
330
671
100
AcDbScale
 70
     0
300
1/2" = 1'-0"
140
0.5
141
12.0
290
     0
  0
SCALE
  5
67D
102
{ACAD_REACTORS
330
671
102
}
330
671
100
AcDbScale
 70
     0
300
3/4" = 1'-0"
140
0.75
141
12.0
290
     0
  0
SCALE
  5
67E
102
{ACAD_REACTORS
330
671
102
}
330
671
100
AcDbScale
 70
     0
300
1" = 1'-0"
140
1.0
141
12.0
290
     0
  0
SCALE
  5
67F
102
{ACAD_REACTORS
330
671
102
}
330
671
100
AcDbScale
 70
     0
300
1-1/2" = 1'-0"
140
1.5
141
12.0
290
     0
  0
SCALE
  5
680
102
{ACAD_REACTORS
330
671
102
}
330
671
100
AcDbScale
 70
     0
300
3" = 1'-0"
140
3.0
141
12.0
290
     0
  0
SCALE
  5
681
102
{ACAD_REACTORS
330
671
102
}
330
671
100
AcDbScale
 70
     0
300
6" = 1'-0"
140
6.0
141
12.0
290
     0
  0
SCALE
  5
682
102
{ACAD_REACTORS
330
671
102
}
330
671
100
AcDbScale
 70
     0
300
1'-0" = 1'-0"
140
12.0
141
12.0
290
     0
  0
TABLESTYLE
  5
670
102
{ACAD_XDICTIONARY
360
6F6
102
}
102
{ACAD_REACTORS
330
66F
102
}
330
66F
100
AcDbTableStyle
  3
Standard
 70
     0
 71
     0
 40
0.06
 41
0.06
280
     0
281
     0
  7
STANDARD
140
0.18
170
     2
 62
     0
 63
     7
283
     0
 90
      512
 91
        0
  1

274
    -2
284
     1
 64
     0
275
    -2
285
     1
 65
     0
276
    -2
286
     1
 66
     0
277
    -2
287
     1
 67
     0
278
    -2
288
     1
 68
     0
279
    -2
289
     1
 69
     0
  7
STANDARD
140
0.25
170
     5
 62
     0
 63
     7
283
     0
 90
      512
 91
        0
  1

274
    -2
284
     1
 64
     0
275
    -2
285
     1
 65
     0
276
    -2
286
     1
 66
     0
277
    -2
287
     1
 67
     0
278
    -2
288
     1
 68
     0
279
    -2
289
     1
 69
     0
  7
STANDARD
140
0.18
170
     5
 62
     0
 63
     7
283
     0
 90
      512
 91
        0
  1

274
    -2
284
     1
 64
     0
275
    -2
285
     1
 65
     0
276
    -2
286
     1
 66
     0
277
    -2
287
     1
 67
     0
278
    -2
288
     1
 68
     0
279
    -2
289
     1
 69
     0
  0
VISUALSTYLE
  5
65B
102
{ACAD_XDICTIONARY
360
703
102
}
102
{ACAD_REACTORS
330
655
102
}
330
655
100
AcDbVisualStyle
  2
2dWireframe
 70
     4
 71
     0
 72
     2
 73
     0
 90
        0
 40
-0.6
 41
-30.0
 62
     5
 63
     7
421
 16777215
 74
     1
 91
        4
 64
     7
 65
   257
 75
     1
175
     1
 42
1.0
 92
        0
 66
   257
 43
1.0
 76
     1
 77
     6
 78
     2
 67
     7
 79
     5
170
     0
171
     0
290
     0
174
     0
 93
        1
 44
0.0
173
     0
291
     0
 45
0.0
1001
ACAD
1000
AcDbSavedByObjectVersion
1070
     0
  0
VISUALSTYLE
  5
65A
102
{ACAD_XDICTIONARY
360
701
102
}
102
{ACAD_REACTORS
330
655
102
}
330
655
100
AcDbVisualStyle
  2
Basic
 70
     7
 71
     1
 72
     0
 73
     1
 90
        0
 40
-0.6
 41
-30.0
 62
     5
 63
     7
421
 16777215
 74
     0
 91
        4
 64
     7
 65
   257
 75
     1
175
     1
 42
1.0
 92
        8
 66
     7
 43
1.0
 76
     1
 77
     6
 78
     2
 67
     7
 79
     5
170
     0
171
     0
290
     0
174
     0
 93
        1
 44
0.0
173
     0
291
     1
 45
0.0
1001
ACAD
1000
AcDbSavedByObjectVersion
1070
     0
  0
VISUALSTYLE
  5
661
102
{ACAD_XDICTIONARY
360
70F
102
}
102
{ACAD_REACTORS
330
655
102
}
330
655
100
AcDbVisualStyle
  2
Brighten
 70
    12
 71
     2
 72
     2
 73
     0
 90
        0
 40
-0.6
 41
-30.0
 62
     5
 63
     7
421
 16777215
 74
     1
 91
        4
 64
     7
 65
   257
 75
     1
175
     1
 42
1.0
 92
        8
 66
     7
 43
1.0
 76
     1
 77
     6
 78
     2
 67
     7
 79
     5
170
     0
171
     0
290
     0
174
     0
 93
        1
 44
50.0
173
     0
291
     1
 45
0.0
1001
ACAD
1000
AcDbSavedByObjectVersion
1070
     0
  0
VISUALSTYLE
  5
665
102
{ACAD_XDICTIONARY
360
717
102
}
102
{ACAD_REACTORS
330
655
102
}
330
655
100
AcDbVisualStyle
  2
ColorChange
 70
    16
 71
     2
 72
     2
 73
     3
 90
        0
 40
-0.6
 41
-30.0
 62
     5
 63
     8
421
  8421504
 74
     1
 91
        4
 64
     7
 65
   257
 75
     1
175
     1
 42
1.0
 92
        8
 66
     8
424
  8421504
 43
1.0
 76
     1
 77
     6
 78
     2
 67
     7
 79
     5
170
     0
171
     0
290
     0
174
     0
 93
        1
 44
0.0
173
     0
291
     1
 45
0.0
1001
ACAD
1000
AcDbSavedByObjectVersion
1070
     0
  0
VISUALSTYLE
  5
65E
102
{ACAD_XDICTIONARY
360
709
102
}
102
{ACAD_REACTORS
330
655
102
}
330
655
100
AcDbVisualStyle
  2
Conceptual
 70
     9
 71
     3
 72
     2
 73
     0
 90
        0
 40
-0.6
 41
-30.0
 62
     5
 63
     7
421
 16777215
 74
     2
 91
        2
 64
     7
 65
   257
 75
     1
175
     1
 42
179.0
 92
        8
 66
     7
 43
1.0
 76
     1
 77
     6
 78
     2
 67
     7
 79
     3
170
     0
171
     0
290
     0
174
     0
 93
        1
 44
0.0
173
     0
291
     0
 45
0.0
1001
ACAD
1000
AcDbSavedByObjectVersion
1070
     0
  0
VISUALSTYLE
  5
660
102
{ACAD_XDICTIONARY
360
70D
102
}
102
{ACAD_REACTORS
330
655
102
}
330
655
100
AcDbVisualStyle
  2
Dim
 70
    11
 71
     2
 72
     2
 73
     0
 90
        0
 40
-0.6
 41
-30.0
 62
     5
 63
     7
421
 16777215
 74
     1
 91
        4
 64
     7
 65
   257
 75
     1
175
     1
 42
1.0
 92
        8
 66
     7
 43
1.0
 76
     1
 77
     6
 78
     2
 67
     7
 79
     5
170
     0
171
     0
290
     0
174
     0
 93
        1
 44
-50.0
173
     0
291
     1
 45
0.0
1001
ACAD
1000
AcDbSavedByObjectVersion
1070
     0
  0
VISUALSTYLE
  5
66D
102
{ACAD_XDICTIONARY
360
727
102
}
102
{ACAD_REACTORS
330
655
102
}
330
655
100
AcDbVisualStyle
  2
EdgeColorOff
 70
    22
 71
     2
 72
     2
 73
     0
 90
        0
 40
-0.6
 41
-30.0
 62
     5
 63
     7
421
 16777215
 74
     1
 91
        4
 64
     7
 65
   257
 75
     1
175
     1
 42
1.0
 92
        8
 66
     7
 43
1.0
 76
     1
 77
     6
 78
     2
 67
     7
 79
     5
170
     0
171
     0
290
     0
174
     0
 93
        1
 44
0.0
173
     0
291
     1
 45
0.0
1001
ACAD
1000
AcDbSavedByObjectVersion
1070
     0
  0
VISUALSTYLE
  5
664
102
{ACAD_XDICTIONARY
360
715
102
}
102
{ACAD_REACTORS
330
655
102
}
330
655
100
AcDbVisualStyle
  2
Facepattern
 70
    15
 71
     2
 72
     2
 73
     0
 90
        0
 40
-0.6
 41
-30.0
 62
     5
 63
     7
421
 16777215
 74
     1
 91
        4
 64
     7
 65
   257
 75
     1
175
     1
 42
1.0
 92
        8
 66
     7
 43
1.0
 76
     1
 77
     6
 78
     2
 67
     7
 79
     5
170
     0
171
     0
290
     0
174
     0
 93
        1
 44
0.0
173
     0
291
     1
 45
0.0
1001
ACAD
1000
AcDbSavedByObjectVersion
1070
     0
  0
VISUALSTYLE
  5
656
102
{ACAD_XDICTIONARY
360
6F9
102
}
102
{ACAD_REACTORS
330
655
102
}
330
655
100
AcDbVisualStyle
  2
Flat
 70
     0
 71
     2
 72
     1
 73
     1
 90
        2
 40
-0.6
 41
30.0
 62
     5
 63
     7
421
 16777215
 74
     0
 91
        0
 64
     7
 65
   257
 75
     1
175
     1
 42
1.0
 92
        8
 66
     7
 43
1.0
 76
     1
 77
     6
 78
     2
 67
     7
 79
     5
170
     0
171
     0
290
     0
174
     0
 93
       13
 44
0.0
173
     0
291
     1
 45
0.0
1001
ACAD
1000
AcDbSavedByObjectVersion
1070
     0
  0
VISUALSTYLE
  5
657
102
{ACAD_XDICTIONARY
360
6FB
102
}
102
{ACAD_REACTORS
330
655
102
}
330
655
100
AcDbVisualStyle
  2
FlatWithEdges
 70
     1
 71
     2
 72
     1
 73
     1
 90
        2
 40
-0.6
 41
30.0
 62
     5
 63
     7
421
 16777215
 74
     1
 91
        0
 64
     7
 65
   257
 75
     1
175
     1
 42
1.0
 92
        0
 66
   257
 43
1.0
 76
     1
 77
     6
 78
     2
 67
     7
 79
     5
170
     0
171
     0
290
     0
174
     0
 93
       13
 44
0.0
173
     0
291
     1
 45
0.0
1001
ACAD
1000
AcDbSavedByObjectVersion
1070
     0
  0
VISUALSTYLE
  5
658
102
{ACAD_XDICTIONARY
360
6FD
102
}
102
{ACAD_REACTORS
330
655
102
}
330
655
100
AcDbVisualStyle
  2
Gouraud
 70
     2
 71
     2
 72
     2
 73
     1
 90
        2
 40
-0.6
 41
30.0
 62
     5
 63
     7
421
 16777215
 74
     0
 91
        0
 64
     7
 65
   257
 75
     1
175
     1
 42
1.0
 92
        0
 66
     7
 43
1.0
 76
     1
 77
     6
 78
     2
 67
     7
 79
     5
170
     0
171
     0
290
     0
174
     0
 93
       13
 44
0.0
173
     0
291
     1
 45
0.0
1001
ACAD
1000
AcDbSavedByObjectVersion
1070
     0
  0
VISUALSTYLE
  5
659
102
{ACAD_XDICTIONARY
360
6FF
102
}
102
{ACAD_REACTORS
330
655
102
}
330
655
100
AcDbVisualStyle
  2
GouraudWithEdges
 70
     3
 71
     2
 72
     2
 73
     1
 90
        2
 40
-0.6
 41
30.0
 62
     5
 63
     7
421
 16777215
 74
     1
 91
        0
 64
     7
 65
   257
 75
     1
175
     1
 42
1.0
 92
        0
 66
   257
 43
1.0
 76
     1
 77
     6
 78
     2
 67
     7
 79
     5
170
     0
171
     0
290
     0
174
     0
 93
       13
 44
0.0
173
     0
291
     1
 45
0.0
1001
ACAD
1000
AcDbSavedByObjectVersion
1070
     0
  0
VISUALSTYLE
  5
65D
102
{ACAD_XDICTIONARY
360
707
102
}
102
{ACAD_REACTORS
330
655
102
}
330
655
100
AcDbVisualStyle
  2
Hidden
 70
     6
 71
     1
 72
     2
 73
     2
 90
        0
 40
-0.6
 41
-30.0
 62
     5
 63
     7
421
 16777215
 74
     2
 91
        2
 64
     7
 65
   257
 75
     2
175
     1
 42
40.0
 92
        0
 66
   257
 43
1.0
 76
     1
 77
     6
 78
     2
 67
     7
 79
     3
170
     0
171
     0
290
     0
174
     0
 93
        1
 44
0.0
173
     0
291
     0
 45
0.0
1001
ACAD
1000
AcDbSavedByObjectVersion
1070
     0
  0
VISUALSTYLE
  5
66B
102
{ACAD_XDICTIONARY
360
723
102
}
102
{ACAD_REACTORS
330
655
102
}
330
655
100
AcDbVisualStyle
  2
JitterOff
 70
    20
 71
     2
 72
     2
 73
     0
 90
        0
 40
-0.6
 41
-30.0
 62
     5
 63
     7
421
 16777215
 74
     1
 91
        4
 64
     7
 65
   257
 75
     1
175
     1
 42
1.0
 92
       10
 66
     7
 43
1.0
 76
     1
 77
     6
 78
     2
 67
     7
 79
     5
170
     0
171
     0
290
     0
174
     0
 93
        1
 44
0.0
173
     0
291
     1
 45
0.0
1001
ACAD
1000
AcDbSavedByObjectVersion
1070
     0
  0
VISUALSTYLE
  5
663
102
{ACAD_XDICTIONARY
360
713
102
}
102
{ACAD_REACTORS
330
655
102
}
330
655
100
AcDbVisualStyle
  2
Linepattern
 70
    14
 71
     2
 72
     2
 73
     0
 90
        0
 40
-0.6
 41
-30.0
 62
     5
 63
     7
421
 16777215
 74
     1
 91
        4
 64
     7
 65
   257
 75
     7
175
     7
 42
1.0
 92
        8
 66
     7
 43
1.0
 76
     1
 77
     6
 78
     2
 67
     7
 79
     5
170
     0
171
     0
290
     0
174
     0
 93
        1
 44
0.0
173
     0
291
     1
 45
0.0
1001
ACAD
1000
AcDbSavedByObjectVersion
1070
     0
  0
VISUALSTYLE
  5
66C
102
{ACAD_XDICTIONARY
360
725
102
}
102
{ACAD_REACTORS
330
655
102
}
330
655
100
AcDbVisualStyle
  2
OverhangOff
 70
    21
 71
     2
 72
     2
 73
     0
 90
        0
 40
-0.6
 41
-30.0
 62
     5
 63
     7
421
 16777215
 74
     1
 91
        4
 64
     7
 65
   257
 75
     1
175
     1
 42
1.0
 92
        9
 66
     7
 43
1.0
 76
     1
 77
     6
 78
     2
 67
     7
 79
     5
170
     0
171
     0
290
     0
174
     0
 93
        1
 44
0.0
173
     0
291
     1
 45
0.0
1001
ACAD
1000
AcDbSavedByObjectVersion
1070
     0
  0
VISUALSTYLE
  5
65F
102
{ACAD_XDICTIONARY
360
70B
102
}
102
{ACAD_REACTORS
330
655
102
}
330
655
100
AcDbVisualStyle
  2
Realistic
 70
     8
 71
     2
 72
     3
 73
     0
 90
        2
 40
-0.6
 41
30.0
 62
     5
 63
     7
421
 16777215
 74
     0
 91
        0
 64
     7
 65
   257
 75
     1
175
     1
 42
1.0
 92
        8
 66
   257
 43
1.0
 76
     1
 77
     6
 78
     2
 67
     7
 79
     3
170
     0
171
     0
290
     0
174
     0
 93
       13
 44
0.0
173
     0
291
     0
 45
0.0
1001
ACAD
1000
AcDbSavedByObjectVersion
1070
     0
  0
VISUALSTYLE
  5
66A
102
{ACAD_XDICTIONARY
360
721
102
}
102
{ACAD_REACTORS
330
655
102
}
330
655
100
AcDbVisualStyle
  2
Shaded
 70
    27
 71
     2
 72
     2
 73
     1
 90
        2
 40
-0.6
 41
30.0
 62
     5
 63
     7
421
 16777215
 74
     0
 91
        4
 64
     7
 65
   257
 75
     1
175
     1
 42
1.0
 92
        8
 66
   257
 43
1.0
 76
     1
 77
     6
 78
     2
 67
     8
425
  7895160
 79
     3
170
     0
171
     0
290
     0
174
     0
 93
        5
 44
0.0
173
     0
291
     0
 45
0.0
1001
ACAD
1000
AcDbSavedByObjectVersion
1070
     0
  0
VISUALSTYLE
  5
669
102
{ACAD_XDICTIONARY
360
71F
102
}
102
{ACAD_REACTORS
330
655
102
}
330
655
100
AcDbVisualStyle
  2
Shaded with edges
 70
    26
 71
     2
 72
     2
 73
     1
 90
        2
 40
-0.6
 41
30.0
 62
     5
 63
     7
421
 16777215
 74
     1
 91
       10
 64
     7
 65
   257
 75
     2
175
     1
 42
1.0
 92
        8
 66
   257
 43
1.0
 76
     1
 77
     6
 78
     2
 67
     7
 79
     3
170
     0
171
     0
290
     0
174
     0
 93
        5
 44
0.0
173
     0
291
     0
 45
0.0
1001
ACAD
1000
AcDbSavedByObjectVersion
1070
     0
  0
VISUALSTYLE
  5
666
102
{ACAD_XDICTIONARY
360
719
102
}
102
{ACAD_REACTORS
330
655
102
}
330
655
100
AcDbVisualStyle
  2
Shades of Gray
 70
    23
 71
     2
 72
     2
 73
     3
 90
        0
 40
-0.6
 41
-30.0
 62
     5
 63
     7
421
 16777215
 74
     2
 91
        2
 64
     7
 65
     7
 75
     1
175
     1
 42
40.0
 92
        8
 66
     7
 43
1.0
 76
     1
 77
     6
 78
     2
 67
     7
 79
     3
170
     0
171
     0
290
     0
174
     0
 93
        1
 44
0.0
173
     0
291
     0
 45
0.0
1001
ACAD
1000
AcDbSavedByObjectVersion
1070
     0
  0
VISUALSTYLE
  5
667
102
{ACAD_XDICTIONARY
360
71B
102
}
102
{ACAD_REACTORS
330
655
102
}
330
655
100
AcDbVisualStyle
  2
Sketchy
 70
    24
 71
     1
 72
     2
 73
     2
 90
        0
 40
-0.6
 41
-30.0
 62
     5
 63
     7
421
 16777215
 74
     2
 91
        2
 64
     7
 65
     7
 75
     1
175
     1
 42
40.0
 92
       11
 66
     7
 43
1.0
 76
     1
 77
     6
 78
     2
 67
     7
 79
     6
170
     0
171
     0
290
     0
174
     0
 93
        1
 44
0.0
173
     0
291
     0
 45
0.0
1001
ACAD
1000
AcDbSavedByObjectVersion
1070
     0
  0
VISUALSTYLE
  5
662
102
{ACAD_XDICTIONARY
360
711
102
}
102
{ACAD_REACTORS
330
655
102
}
330
655
100
AcDbVisualStyle
  2
Thicken
 70
    13
 71
     2
 72
     2
 73
     0
 90
        0
 40
-0.6
 41
-30.0
 62
     5
 63
     7
421
 16777215
 74
     1
 91
        4
 64
     7
 65
   257
 75
     1
175
     1
 42
1.0
 92
       12
 66
     7
 43
1.0
 76
     1
 77
     6
 78
     2
 67
     7
 79
     5
170
     0
171
     0
290
     0
174
     0
 93
        1
 44
0.0
173
     0
291
     1
 45
0.0
1001
ACAD
1000
AcDbSavedByObjectVersion
1070
     0
  0
VISUALSTYLE
  5
65C
102
{ACAD_XDICTIONARY
360
705
102
}
102
{ACAD_REACTORS
330
655
102
}
330
655
100
AcDbVisualStyle
  2
Wireframe
 70
     5
 71
     0
 72
     2
 73
     0
 90
        0
 40
-0.6
 41
-30.0
 62
     5
 63
     7
421
 16777215
 74
     1
 91
        4
 64
     7
 65
   257
 75
     1
175
     1
 42
1.0
 92
        0
 66
   257
 43
1.0
 76
     1
 77
     6
 78
     2
 67
     7
 79
     3
170
     0
171
     0
290
     0
174
     0
 93
        1
 44
0.0
173
     0
291
     0
 45
0.0
1001
ACAD
1000
AcDbSavedByObjectVersion
1070
     0
  0
VISUALSTYLE
  5
668
102
{ACAD_XDICTIONARY
360
71D
102
}
102
{ACAD_REACTORS
330
655
102
}
330
655
100
AcDbVisualStyle
  2
X-Ray
 70
    25
 71
     2
 72
     2
 73
     1
 90
        1
 40
0.5
 41
-30.0
 62
     5
 63
     7
421
 16777215
 74
     1
 91
        0
 64
     7
 65
   257
 75
     1
175
     1
 42
1.0
 92
        8
 66
     7
 43
1.0
 76
     1
 77
     6
 78
     2
 67
     7
 79
     3
170
     0
171
     0
290
     0
174
     0
 93
       13
 44
0.0
173
     0
291
     0
 45
0.0
1001
ACAD
1000
AcDbSavedByObjectVersion
1070
     0
  0
DICTIONARYVAR
  5
6F1
102
{ACAD_REACTORS
330
35
102
}
330
35
100
DictionaryVariables
280
     0
  1
1:1
  0
DICTIONARYVAR
  5
6EF
102
{ACAD_REACTORS
330
35
102
}
330
35
100
DictionaryVariables
280
     0
  1
STANDARD
  0
DICTIONARYVAR
  5
6EE
102
{ACAD_REACTORS
330
35
102
}
330
35
100
DictionaryVariables
280
     0
  1
STANDARD
  0
DICTIONARYVAR
  5
36
102
{ACAD_REACTORS
330
35
102
}
330
35
100
DictionaryVariables
280
     0
  1
0
  0
DICTIONARYVAR
  5
6F3
102
{ACAD_REACTORS
330
35
102
}
330
35
100
DictionaryVariables
280
     0
  1
1
  0
DICTIONARYVAR
  5
6F4
102
{ACAD_REACTORS
330
35
102
}
330
35
100
DictionaryVariables
280
     0
  1
15
  0
DICTIONARYVAR
  5
6F2
102
{ACAD_REACTORS
330
35
102
}
330
35
100
DictionaryVariables
280
     0
  1
0
  0
DICTIONARYVAR
  5
6F0
102
{ACAD_REACTORS
330
35
102
}
330
35
100
DictionaryVariables
280
     0
  1
0
  0
DICTIONARYVAR
  5
6F5
102
{ACAD_REACTORS
330
35
102
}
330
35
100
DictionaryVariables
280
     0
  1
2
  0
DICTIONARY
  5
6B0
330
5B8
100
AcDbDictionary
280
     1
281
     1
  3
ADSK_XREC_LAYOUTTHUMBNAIL
360
6B1
  0
DICTIONARY
  5
646
330
645
100
AcDbDictionary
280
     1
281
     1
  3
BUMPTILE
360
648
  3
DIFFUSETILE
360
647
  3
OPACITYTILE
360
64B
  3
REFLECTIONTILE
360
64A
  3
REFRACTIONTILE
360
64C
  3
SPECULARTILE
360
649
  0
DICTIONARY
  5
63E
330
63D
100
AcDbDictionary
280
     1
281
     1
  3
BUMPTILE
360
640
  3
DIFFUSETILE
360
63F
  3
OPACITYTILE
360
643
  3
REFLECTIONTILE
360
642
  3
REFRACTIONTILE
360
644
  3
SPECULARTILE
360
641
  0
DICTIONARY
  5
64E
330
64D
100
AcDbDictionary
280
     1
281
     1
  3
BUMPTILE
360
650
  3
DIFFUSETILE
360
64F
  3
OPACITYTILE
360
653
  3
REFLECTIONTILE
360
652
  3
REFRACTIONTILE
360
654
  3
SPECULARTILE
360
651
  0
DICTIONARY
  5
6F6
330
670
100
AcDbDictionary
280
     1
281
     1
  3
ACAD_ROUNDTRIP_2008_TABLESTYLE_CELLSTYLEMAP
360
6F7
  0
DICTIONARY
  5
703
330
65B
100
AcDbDictionary
280
     1
281
     1
  3
ACAD_XREC_ROUNDTRIP
360
704
  0
DICTIONARY
  5
701
330
65A
100
AcDbDictionary
280
     1
281
     1
  3
ACAD_XREC_ROUNDTRIP
360
702
  0
DICTIONARY
  5
70F
330
661
100
AcDbDictionary
280
     1
281
     1
  3
ACAD_XREC_ROUNDTRIP
360
710
  0
DICTIONARY
  5
717
330
665
100
AcDbDictionary
280
     1
281
     1
  3
ACAD_XREC_ROUNDTRIP
360
718
  0
DICTIONARY
  5
709
330
65E
100
AcDbDictionary
280
     1
281
     1
  3
ACAD_XREC_ROUNDTRIP
360
70A
  0
DICTIONARY
  5
70D
330
660
100
AcDbDictionary
280
     1
281
     1
  3
ACAD_XREC_ROUNDTRIP
360
70E
  0
DICTIONARY
  5
727
330
66D
100
AcDbDictionary
280
     1
281
     1
  3
ACAD_XREC_ROUNDTRIP
360
728
  0
DICTIONARY
  5
715
330
664
100
AcDbDictionary
280
     1
281
     1
  3
ACAD_XREC_ROUNDTRIP
360
716
  0
DICTIONARY
  5
6F9
330
656
100
AcDbDictionary
280
     1
281
     1
  3
ACAD_XREC_ROUNDTRIP
360
6FA
  0
DICTIONARY
  5
6FB
330
657
100
AcDbDictionary
280
     1
281
     1
  3
ACAD_XREC_ROUNDTRIP
360
6FC
  0
DICTIONARY
  5
6FD
330
658
100
AcDbDictionary
280
     1
281
     1
  3
ACAD_XREC_ROUNDTRIP
360
6FE
  0
DICTIONARY
  5
6FF
330
659
100
AcDbDictionary
280
     1
281
     1
  3
ACAD_XREC_ROUNDTRIP
360
700
  0
DICTIONARY
  5
707
330
65D
100
AcDbDictionary
280
     1
281
     1
  3
ACAD_XREC_ROUNDTRIP
360
708
  0
DICTIONARY
  5
723
330
66B
100
AcDbDictionary
280
     1
281
     1
  3
ACAD_XREC_ROUNDTRIP
360
724
  0
DICTIONARY
  5
713
330
663
100
AcDbDictionary
280
     1
281
     1
  3
ACAD_XREC_ROUNDTRIP
360
714
  0
DICTIONARY
  5
725
330
66C
100
AcDbDictionary
280
     1
281
     1
  3
ACAD_XREC_ROUNDTRIP
360
726
  0
DICTIONARY
  5
70B
330
65F
100
AcDbDictionary
280
     1
281
     1
  3
ACAD_XREC_ROUNDTRIP
360
70C
  0
DICTIONARY
  5
721
330
66A
100
AcDbDictionary
280
     1
281
     1
  3
ACAD_XREC_ROUNDTRIP
360
722
  0
DICTIONARY
  5
71F
330
669
100
AcDbDictionary
280
     1
281
     1
  3
ACAD_XREC_ROUNDTRIP
360
720
  0
DICTIONARY
  5
719
330
666
100
AcDbDictionary
280
     1
281
     1
  3
ACAD_XREC_ROUNDTRIP
360
71A
  0
DICTIONARY
  5
71B
330
667
100
AcDbDictionary
280
     1
281
     1
  3
ACAD_XREC_ROUNDTRIP
360
71C
  0
DICTIONARY
  5
711
330
662
100
AcDbDictionary
280
     1
281
     1
  3
ACAD_XREC_ROUNDTRIP
360
712
  0
DICTIONARY
  5
705
330
65C
100
AcDbDictionary
280
     1
281
     1
  3
ACAD_XREC_ROUNDTRIP
360
706
  0
DICTIONARY
  5
71D
330
668
100
AcDbDictionary
280
     1
281
     1
  3
ACAD_XREC_ROUNDTRIP
360
71E
  0
XRECORD
  5
6B1
102
{ACAD_REACTORS
330
6B0
102
}
330
6B0
100
AcDbXrecord
280
     1
310
2800000000010000B0000000010008000000000000B00000000000000000000000010000000000000000000000000000FFFFFF000000000000000000000000000000000000000000000000000000000000000000330000006600000099000000CC000000FF00000000330000333300006633000099330000CC330000FF3300
310
0000660000336600006666000099660000CC660000FF66000000990000339900006699000099990000CC990000FF99000000CC000033CC000066CC000099CC0000CCCC0000FFCC000000FF000033FF000066FF000099FF0000CCFF0000FFFF000000003300330033006600330099003300CC003300FF003300003333003333
310
33006633330099333300CC333300FF33330000663300336633006666330099663300CC663300FF66330000993300339933006699330099993300CC993300FF99330000CC330033CC330066CC330099CC3300CCCC3300FFCC330000FF330033FF330066FF330099FF3300CCFF3300FFFF330000006600330066006600660099
310
006600CC006600FF00660000336600333366006633660099336600CC336600FF33660000666600336666006666660099666600CC666600FF66660000996600339966006699660099996600CC996600FF99660000CC660033CC660066CC660099CC6600CCCC6600FFCC660000FF660033FF660066FF660099FF6600CCFF6600
310
FFFF660000009900330099006600990099009900CC009900FF00990000339900333399006633990099339900CC339900FF33990000669900336699006666990099669900CC669900FF66990000999900339999006699990099999900CC999900FF99990000CC990033CC990066CC990099CC9900CCCC9900FFCC990000FF99
310
0033FF990066FF990099FF9900CCFF9900FFFF99000000CC003300CC006600CC009900CC00CC00CC00FF00CC000033CC003333CC006633CC009933CC00CC33CC00FF33CC000066CC003366CC006666CC009966CC00CC66CC00FF66CC000099CC003399CC006699CC009999CC00CC99CC00FF99CC0000CCCC0033CCCC0066CC
310
CC0099CCCC00CCCCCC00FFCCCC0000FFCC0033FFCC0066FFCC0099FFCC00CCFFCC00FFFFCC000000FF003300FF006600FF009900FF00CC00FF00FF00FF000033FF003333FF006633FF009933FF00CC33FF00FF33FF000066FF003366FF006666FF009966FF00CC66FF00FF66FF000099FF003399FF006699FF009999FF00CC
310
99FF00FF99FF0000CCFF0033CCFF0066CCFF0099CCFF00CCCCFF00FFCCFF0000FFFF0033FFFF0066FFFF0099FFFF00CCFFFF00FFFFFF00000000000D0D0D001A1A1A00282828003535350043434300505050005D5D5D006B6B6B00787878008686860093939300A1A1A100AEAEAE00BBBBBB00C9C9C900D6D6D600E4E4E400
310
F1F1F100FFFFFF000000000000000000000000000000000000000000000000000000000000000000000000000000000000000000000000000000000000000000000000000000000000000000000000000000000000000000000000000000000000000000000000000000000000000000000000000000000000000000000000
310
00000000000000000000000000000000000000000000000000000000000000000000000000000000000000000000000000000000000000000000000000000000000000000000000000000000000000000000000000000000000000000000000000000000000000000000000000000000000000000000000000000000000000
310
00000000000000000000000000000000000000000000000000000000000000000000000000000000000000000000000000000000000000000000000000000000000000000000000000000000F50000000000000000000000000000000000000000000000000000000000000000000000000000000000000000000000000000
310
00000000000000000000000000000000000000000000000000000000000000000000000000000000000000000000000000000000000000000000000000000000000000000000000000000000000000000000000000000000000000000000000000000000000000000000000000000000000000000000000000000000000000
310
00000000000000000000000000000000000000000000000000F500000000000000000000000000000000000000000000000000000000000000000000000000000000000000000000000000000000F5000000000000000000000000000000000000000000000000000000000000000000000000000000000000000000000000
310
00000000000000000000000000000000000000000000000000000000000000000000000000000000000000000000000000000000000000000000000000000000000000000000000000000000000000000000000000000000000000000000000000000000000000000000000000000000000000000000000000000000000000
310
000000000000000000000000000000000000000000000000000000F500000000000000000000000000000000000000000000000000000000000000000000000000000000000000000000000000000000F500000000000000000000000000000000000000000000000000000000000000000000000000000000000000000000
310
00000000000000000000000000000000000000000000000000000000000000000000000000000000000000000000000000000000000000000000000000000000000000000000000000000000000000000000000000000000000000000000000000000000000000000000000000000000000000000000000000000000000000
310
0000000000000000000000000000000000000000000000000000000000F500000000000000000000000000000000000000000000000000000000000000000000000000000000000000000000000000000000000000000000000000000000000000000000000000000000000000000000000000000000000000000000000000
310
00000000000000000000000000000000000000000000000000000000000000000000000000000000000000000000000000000000000000000000000000000000000000000000000000000000000000000000000000000000000000000000000000000000000000000000000000000000000000000000000000000000000000
310
000000000000000000000000000000000000000000000000000000000000000000000000000000000000000000000000000000000000000000000000000000000000000000000000000000000000000000000000F5000000000000000000000000000000000000000000000000000000000000000000000000000000000000
310
00000000000000000000000000000000000000000000000000000000000000000000000000000000000000000000000000000000000000000000000000000000000000000000000000000000000000000000000000000000000000000000000000000000000000000000000000000000000000000000000000000000000000
310
000000000000000000000000000000000000000000000000000000000000000000F500000000000000000000000000000000000000000000000000000000000000000000000000000000000000000000000000000000F500000000000000000000000000000000000000000000000000000000000000000000000000000000
310
00000000000000000000000000000000000000000000000000000000000000000000000000000000000000000000000000000000000000000000000000000000000000000000000000000000000000000000000000000000000000000000000000000000000000000000000000000000000000000000000000000000000000
310
0000000000000000000000000000000000000000000000000000000000000000000000F500000000000000000000000000000000000000000000000000000000000000000000000000000000000000000000000000000000F50000000000000000000000000000000000000000000000000000000000000000000000000000
310
00000000000000000000000000000000000000000000000000000000000000000000000000000000000000000000000000000000000000000000000000000000000000000000000000000000000000000000000000000000000000000000000000000000000000000000000000000000000000000000000000000000000000
310
00000000000000000000000000000000000000000000000000000000000000000000000000F500000000000000000000000000000000000000000000000000000000000000000000000000000000000000000000000000000000F5000000000000000000000000000000000000000000000000000000000000000000000000
310
00000000000000000000000000000000000000000000000000000000000000000000000000000000000000000000000000000000000000000000000000000000000000000000000000000000000000000000000000000000000000000000000000000000000000000000000000000000000000000000000000000000000000
310
000000000000000000000000000000000000000000000000000000000000000000000000000000F500000000000000000000000000000000000000000000000000000000000000000000000000000000000000000000000000000000F500000000000000000000000000000000000000000000000000000000000000000000
310
00000000000000000000000000000000000000000000000000000000000000000000000000000000000000000000000000000000000000000000000000000000000000000000000000000000000000000000000000000000000000000000000000000000000000000000000000000000000000000000000000000000000000
310
0000000000000000000000000000000000000000000000000000000000000000000000000000000000F500000000000000000000000000000000000000000000000000000000000000000000000000000000000000F5F5F5F5F5F5F5F5F5F5F5F5F5F5F500F5F5F50000000000000000000000000000000000000000000000
310
00000000000000000000000000000000000000000000000000000000000000000000000000000000000000000000000000000000000000000000000000000000000000000000000000000000000000000000000000000000000000000000000000000000000000000000000000000000000000000000000000000000000000
310
000000000000000000000000000000000000000000000000000000000000000000F5F5F5F500F5F5F5F5F5F5F5F5F5F5F5F5F5F5F500000000000000000000000000000000000000000000000000000000000000000000000000000000000000F5000000000000000000000000000000000000000000000000000000000000
310
00000000000000000000000000000000000000000000000000000000000000000000000000000000000000000000000000000000000000000000000000000000000000000000000000000000000000000000000000000000000000000000000000000000000000000000000000000000000000000000000000000000000000
310
000000000000000000000000000000000000000000000000000000000000000000000000000000000000000000F500000000000000000000000000000000000000000000000000000000000000000000000000000000000000000000000000000000F500000000000000000000000000000000000000000000000000000000
310
00000000000000000000000000000000000000000000000000000000000000000000000000000000000000000000000000000000000000000000000000000000000000000000000000000000000000000000000000000000000000000000000000000000000000000000000000000000000000000000000000000000000000
310
0000000000000000000000000000000000000000000000000000000000000000000000000000000000000000000000F500000000000000000000000000000000000000000000000000000000000000000000000000000000000000000000000000000000F50000000000000000000000000000000000000000000000000000
310
00000000000000000000000000000000000000000000000000000000000000000000000000000000000000000000000000000000000000000000000000000000000000000000000000000000000000000000000000000000000000000000000000000000000000000000000000000000000000000000000000000000000000
310
00000000000000000000000000000000000000000000000000000000000000000000000000000000000000000000000000F500000000000000000000000000000000000000000000000000000000000000000000000000000000000000000000000000000000F5000000000000000000000000000000000000000000000000
310
00000000000000000000000000000000000000000000000000000000000000000000000000000000000000000000000000000000000000000000000000000000000000000000000000000000000000000000000000000000000000000000000000000000000000000000000000000000000000000000000000000000000000
310
000000000000000000000000000000000000000000000000000000000000000000000000000000000000000000000000000000F500000000000000000000000000000000000000000000000000000000000000000000000000000000000000000000000000000000F500000000000000000000000000000000000000000000
310
00000000000000000000000000000000000000000000000000000000000000000000000000000000000000000000000000000000000000000000000000000000000000000000000000000000000000000000000000000000000000000000000000000000000000000000000000000000000000000000000000000000000000
310
0000000000000000000000000000000000000000000000000000000000000000000000000000000000000000000000000000000000F500000000000000000000000000000000000000000000000000000000000000000000000000000000000000000000000000000000F50000000000000000000000000000000000000000
310
00000000000000000000000000000000000000000000000000000000000000000000000000000000000000000000000000000000000000000000000000000000000000000000000000000000000000000000000000000000000000000000000000000000000000000000000000000000000000000000000000000000000000
310
00000000000000000000000000000000000000000000000000000000000000000000000000000000000000000000000000000000000000F500000000000000000000000000000000000000000000000000000000000000000000000000000000000000000000000000000000F5000000000000000000000000000000000000
310
00000000000000000000000000000000000000000000000000000000000000000000000000000000000000000000000000000000000000000000000000000000000000000000000000000000000000000000000000000000000000000000000000000000000000000000000000000000000000000000000000000000000000
310
000000000000000000000000000000000000000000000000000000000000000000000000000000000000000000000000000000000000000000F500000000000000000000000000000000000000000000000000000000000000000000000000000000000000000000000000000000F500000000000000000000000000000000
310
00000000000000000000000000000000000000000000000000000000000000000000000000000000000000000000000000000000000000000000000000000000000000000000000000000000000000000000000000000000000000000000000000000000000000000000000000000000000000000000000000000000000000
310
0000000000000000000000000000000000000000000000000000000000000000000000000000000000000000000000000000000000000000000000F500000000000000000000000000000000000000000000000000000000000000000000000000000000000000000000000000000000F50000000000000000000000000000
310
00000000000000000000000000000000000000000000000000000000000000000000000000000000000000000000000000000000000000000000000000000000000000000000000000000000000000000000000000000000000000000000000000000000000000000000000000000000000000000000000000000000000000
310
00000000000000000000000000000000000000000000000000000000000000000000000000000000000000000000000000000000000000000000000000F50000000000000000000000000000000000000000000000000000000000000000000000000000000000000000000000000000000000000000000000000000000000
310
00000000000000000000000000000000000000000000000000000000000000000000000000000000000000000000000000000000000000000000000000000000000000000000000000000000000000000000000000000000000000000000000000000000000000000000000000000000000000000000000000000000000000
310
000000000000000000000000000000000000000000000000000000000000000000000000000000000000000000000000DCDCDCDCDCDCDCDCDCDCDC0000000000000000000000000000000000000000000000000000000000000000000000000000000000000000000000000000000000000000000000000000000000000000
310
00000000000000000000000000000000000000000000000000000000000000000000000000000000000000000000000000000000000000000000000000000000000000000000000000000000000000000000000000000000000000000000000000000000000000000000000000000000000000000000000000000000000000
310
0000000000000000000000000000000000000000000000000000000000000000000000000000000000000000000000000000DCDCDCDCDCDCDCDCDCDCDC000000000000000000000000000000000000000000000000000000000000000000000000000000000000000000000000000000000000000000000000DCDCDCDCDCDC
310
DCDCDCDCDCDCDCDCDCDCDCDCDCDCDCDCDCDCDCDCDCDCDCDCDCDCDCDCDCDCDCDCDCDCDCDCDCDCDCDCDCDCDCDCDCDCDCDCDCDCDCDCDCDCDCDCDCDCDCDCDCDCDCDCDCDCDCDCDCDCDCDCDCDCDCDCDCDCDCDCDCDCDCDCDCDCDCDCDCDCDCDCDCDCDCDCDCDCDCDCDCDCDCDCDCDCDCDCDCDCDCDCDCDCDCDCDCDCDCDCDCDCDCDCDCDCDC
310
DCDCDCDCDCDCDCDCDCDCDCDCDCDCDCDCDCDCDCDCDCDCDCDCDCDCDCDCDCDCDCDCDCDCDCDCDCDCDCDCDCDCDCDCDCDCDCDCDCDCDCDCDCDCDCDCDCDCDCDCDCDCDCDCDC00000000000000000000000000000000000000000000000000000000000000000000000000000000000000000000000000000000000000000000DCDCDCDC
310
DCDCDCDCDCDCDCDCDCDCDCDCDCDCDCDCDCDCDCDCDCDCDCDCDCDCDCDCDCDCDCDCDCDCDCDCDCDCDCDCDCDCDCDCDCDCDCDCDCDCDCDCDCDCDCDCDCDCDCDCDCDCDCDCDCDCDCDCDCDCDCDCDCDCDCDCDCDCDCDCDCDCDCDCDCDCDCDCDCDCDCDCDCDCDCDCDCDCDCDCDCDCDCDCDCDCDCDCDCDCDCDCDCDCDCDCDCDCDCDCDCDCDCDCDCDCDC
310
DCDCDCDCDCDCDCDCDCDCDCDCDCDCDCDCDCDCDCDCDCDCDCDCDCDCDCDCDCDCDCDCDCDCDCDCDCDCDCDCDCDCDCDCDCDCDCDCDCDCDCDCDCDCDCDCDCDCDCDCDCDCDCDCDCDCDC00000000000000000000000000000000000000000000000000000000000000000000000000000000000000000000000000000000000000000000DCDC
310
0000DCDCDCDCDCDCDCDCDCDC0000000000000000000000000000000000DCDCDCDCDC0000000000000000000000000000000000000000000000000000000000000000000000000000DCDCDCDCDCDCDCDCDCDCDCDCDCDCDCDCDCDCDCDCDCDCDCDCDCDCDCDCDCDCDCDCDCDCDCDCDCDC00000000DC000000000000000000000000
310
000000000000000000000000000000000000DC00000000000000000000000000000000000000000000000000000000DCDCDCDCDCDCDCDCDCDCDC000000000000000000DCDC00000000000000000000000000000000000000000000000000000000000000000000000000000000000000000000000000000000000000000000
310
DCDC0000DCDCDCDCDCDCDCDCDCDCDC00000000000000000000000000000000DC000000000000000000000000000000000000000000000000000000000000000000000000000000000000DC0000000000000000000000000000000000000000000000000000000000000000000000000000000000DC00000000000000000000
310
0000000000000000000000000000000000000000DCDCDCDCDCDCDCDCDCDCDCDCDCDCDCDCDCDCDCDCDCDC00000000000000DCDCDCDCDCDCDCDCDCDCDC000000000000000000DCDC0000000000000000000000000000000000000000000000000000000000000000000000000000000000000000000000000000000000000000
310
0000DCDC0000DCDCDCDCDCDCDCDCDCDC00DC00DCDCDCDCDCDCDCDCDCDC00000000DCDCDCDCDCDCDCDCDCDCDCDCDCDCDCDCDCDCDCDCDCDCDCDCDCDCDCDCDCDCDCDCDCDCDCDCDCDCDCDCDCDCDCDC0000000000000000000000000000000000000000000000000000000000000000000000000000000000DCDCDCDCDCDCDCDCDC
310
DCDC00DCDCDCDCDCDCDCDCDCDCDCDCDCDCDCDCDCDCDCDCDCDCDCDCDCDCDCDCDCDCDCDCDCDCDCDCDCDCDCDCDC00DCDCDCDCDCDCDC00000000000000000000000000000000000000DCDC000000000000000000000000000000000000000000000000000000000000000000000000000000000000000000000000000000000000
310
00000000DCDC0000DCDCDCDC00DCDCDCDCDC00DCDCDCDCDCDCDCDCDCDCDCDC00000000DCDCDCDCDC0000000000000000000000000000000000000000000000000000000000000000000000000000DC0000000000000000000000000000000000000000000000000000000000000000000000000000000000DC000000000000
310
000000000000000000000000000000000000000000000000DC00000000000000000000000000000000000000000000000000000000DCDCDCDCDC00DCDCDCDCDCDCDCDCDCDCDCDCDCDCDCDC00000000000000000000000000000000000000000000000000000000000000000000000000000000000000000000000000000000
310
000000000000DCDC0000000000000000000000000000000000DCDC00000000000000000000DC000000000000000000000000000000000000000000000000000000000000000000000000000000000000DCDCDCDCDCDCDCDCDCDCDCDCDCDCDCDCDCDCDCDCDCDCDCDCDCDCDCDCDCDCDCDCDCDCDCDCDCDCDCDCDCDCDC00000000
310
0000000000000000000000000000000000000000000000000000DC00000000000000000000000000000000000000000000000000000000DCDCDCDCDC000000000000000000000000000000DCDC0000000000000000000000000000000000000000000000000000000000000000000000000000000000000000000000000000
310
0000000000000000DCDC00DCDCDCDCDCDCDC00DCDCDCDCDCDCDCDCDCDCDCDCDCDCDCDCDC000000DCDCDCDCDCDCDCDCDCDCDCDCDCDCDCDCDCDCDCDCDCDCDCDCDCDCDCDCDCDCDCDCDCDCDCDCDCDCDCDCDCDCDCDCDCDCDCDCDCDCDCDCDCDCDCDCDCDCDCDCDCDCDCDCDCDCDCDCDCDCDCDCDCDCDCDCDCDCDCDCDCDCDCDC00DCDCDC
310
DCDCDCDCDCDCDCDCDCDCDCDCDCDCDCDCDCDCDCDCDCDCDCDCDCDCDCDCDCDCDCDCDCDCDCDCDCDCDCDCDCDCDCDCDCDC00DCDCDCDCDCDCDCDCDCDCDC00000000000000000000000000000000000000DCDC000000000000000000000000000000000000000000000000000000000000000000000000000000000000000000000000
310
00000000000000000000DCDC00DCDCDCDCDCDCDC00DCDCDCDCDCDCDCDCDCDCDCDCDCDCDCDCDC000000DCDCDCDC000000000000000000000000000000000000000000000000000000000000000000000000000000DC0000000000000000000000000000000000000000000000000000000000000000000000000000000000DC
310
DCDCDCDCDCDCDCDCDCDCDCDCDCDCDCDCDCDCDC0000000000000000000000DCDCDCDCDCDCDCDCDCDCDCDCDCDCDCDCDCDC0000000000000000000000DCDCDCDCDC00DCDCDCDCDCDCDCDCDCDCDCDCDCDCDCDC00000000000000000000000000000000000000000000000000000000000000000000000000000000000000000000
310
000000000000000000000000DCDC00DCDCDCDCDCDCDC00DCDCDCDCDCDCDCDCDCDCDCDCDCDCDCDCDCDC0000DCDCDCDC000000000000000000000000000000000000000000000000000000000000000000000000000000DC00000000000000000000000000000000000000000000000000000000000000000000000000000000
310
00DC000000000000000000000000000000000000000000000000000000000000DC00000000000000000000000000000000000000000000000000000000DCDCDCDCDC000000000000000000000000000000DCDC0000000000000000000000000000000000000000000000000000000000000000000000000000000000000000
310
0000000000000000000000000000DCDC00DCDCDCDCDCDC0000DCDCDCDCDCDCDCDCDCDCDCDCDCDCDCDCDCDC0000DC000000000000000000000000000000000000000000000000000000000000000000000000000000000000DCDCDCDCDCDCDCDCDCDCDCDCDCDCDCDCDCDCDCDCDCDCDCDCDCDCDCDCDCDCDCDCDCDCDCDCDCDCDC
310
DCDCDCDC000000000000000000000000000000000000000000000000000000000000DC00000000000000000000000000000000000000000000000000000000DC00000000000000000000000000000000000000DCDC000000000000000000000000000000000000000000000000000000000000000000000000000000000000
310
00000000000000000000000000000000DCDC00DCDCDCDCDCDCDC00DCDCDCDCDCDCDCDCDCDCDCDCDCDCDCDCDCDC0000DCDCDCDCDCDCDCDCDCDCDCDCDCDCDCDCDCDCDCDCDCDCDCDCDCDCDCDCDCDCDCDCDCDCDCDCDCDCDCDCDCDCDCDC00000000DCDCDCDCDCDCDCDCDCDCDCDC00000000000000DCDCDCDCDCDCDCDCDCDC000000
310
0000000000DCDCDCDCDCDCDCDCDCDCDCDCDCDCDCDCDC0000DCDCDCDCDCDCDCDCDCDCDCDCDCDCDCDCDCDCDCDCDCDCDCDCDCDCDCDCDCDCDC0000DCDCDCDCDCDCDCDCDC00000000000000000000000000000000000000DCDC00000000000000000000000000000000000000000000000000000000000000000000000000000000
310
000000000000000000000000000000000000DCDC00DCDCDCDCDCDCDC00DCDCDCDCDC000000000000000000000000000000DCDCDCDCDC0000000000000000000000000000000000000000000000000000000000000000000000000000DC00000000DCDCDCDCDCDCDCDCDCDCDCDC00000000000000DCDCDCDCDCDCDCDCDCDC00
310
00000000000000DCDCDCDCDCDCDCDCDCDCDCDCDCDCDCDCDC0000000000000000000000000000DCDCDCDCDCDCDCDCDCDCDCDCDCDCDCDCDCDCDC00000000000000000000DCDCDCDCDCDCDCDCDCDCDC000000DCDCDCDCDC00DCDC0000000000000000000000000000000000000000000000000000000000000000000000000000
310
0000000000000000000000000000000000000000DCDC00DCDCDCDCDCDCDC000000000000000000000000000000000000000000DC000000000000000000000000000000000000000000000000000000000000000000000000000000000000DC0000000000000000000000000000000000000000000000DC0000000000000000
310
000000000000000000DC000000000000000000000000000000000000000000000000000000000000DC00000000000000000000000000000000000000000000000000000000DCDCDCDCDCDCDCDCDCDCDC00DCDCDCDC00DCDCDCDCDC000000000000000000000000000000000000000000000000000000000000000000000000
310
00000000000000000000000000000000000000000000DCDCDCDCDCDCDCDCDCDCDCDCDCDCDCDCDCDCDCDCDCDCDCDCDCDCDCDCDCDCDCDCDCDCDCDCDCDCDCDCDCDCDCDCDCDCDCDCDCDCDCDCDCDCDCDCDCDCDCDCDCDCDCDCDCDCDCDCDCDCDCDCDCDCDCDCDCDCDCDCDCDCDCDCDCDCDCDCDCDCDCDCDCDCDCDCDCDCDCDCDCDCDCDCDC
310
DCDCDCDCDCDCDCDCDCDCDCDCDCDCDCDCDCDCDCDCDCDCDCDCDCDCDCDCDCDCDCDCDCDCDCDCDCDCDCDCDCDCDCDCDCDCDCDCDCDCDCDCDCDCDCDCDCDCDCDCDCDCDCDCDCDCDCDCDCDCDCDCDCDCDCDCDCDCDCDCDCDCDCDCDCDCDCDCDCDCDCDCDC00000000000000000000000000000000000000000000000000000000000000000000
310
000000000000000000000000000000000000000000000000DCDC0000000000000000000000000000000000000000000000000000000000000000000000000000000000000000000000000000000000000000000000000000000000000000000000000000000000000000000000000000000000000000000000000000000000
310
000000000000000000000000000000000000000000000000000000000000000000000000000000000000000000000000000000000000000000000000000000000000000000000000000000000000000000000000000000000000000000DCDC0000000000000000000000000000000000000000000000000000000000000000
310
0000000000000000000000000000000000000000000000000000DCDC000000000000000000000000000000000000000000000000000000000000000000000000000000000000000000000000000000000000000000000000000000000000000000000000000000000000000000000000000000000000000000000000000000
310
0000000000000000000000000000000000000000000000000000000000000000000000000000000000000000000000000000000000000000000000000000000000000000000000000000000000000000000000000000000000000000000000DCDC000000000000000000000000000000000000000000000000000000000000
310
00000000000000000000000000000000000000000000000000000000DCDC00000000000000000000000000000000000000000000000000000000000000000000000000000000000000000000000000000000000000000000000000000000000000000000000000000000000000000000000000000000000000000000000000
310
00000000000000000000000000000000000000000000000000000000000000000000000000000000000000000000000000000000000000000000000000000000000000000000000000000000000000000000000000000000000000000000000000DCDC00000000000000000000000000000000000000000000000000000000
310
000000000000000000000000000000000000000000000000000000000000DCDC00000000000000DCDCDCDCDCDCDCDCDCDCDCDCDCDCDCDCDCDCDCDCDCDCDCDCDCDC0000000000000000000000000000000000000000000000000000000000000000000000000000000000000000000000000000000000000000000000000000
310
00000000000000000000000000000000000000000000000000000000000000000000000000000000000000000000000000000000000000000000000000000000000000000000000000000028282828282828282828F500F5F5F5F5F500000000000000DCDC0000000000000000000000000000000000000000000000000000
310
0000000000000000000000000000000000000000000000000000000000000000DCDC00000000000000DCDCDCDCDCDCDCDCDCDCDCDCDCDCDCDCDCDCDCDCDCDCDCDCDCDC000000000000000000000000000000000000000000000000000000000000000000000000000000000000000000000000000000000000000000000000
310
00000000000000000000000000000000000000000000000000000000000000000000000000000000000000000000000000000000000000000000000000000000000000000000000000000000002828282828000000000028000000F5F50000000000000000DCDC000000000000000000000000000000000000000000000000
310
00000000000000000000000000000000000000000000000000000000000000000000DCDC00000000DCDCDCDCDCDCDCDCDCDCDCDCDCDCDCDCDCDCDCDCDCDCDCDCDCDCDCDC0000000000000000000000000000000000000000000000000000000000000000000000000000000000000000000000000000000000000000000000
310
00000000000000000000000000000000000000000000000000000000000000000000000000000000000000000000000000000000000000000000000000000000000000000000000000000000000000282828002800000000002800000000F50000000000000000DCDC00000000000000000000000000000000000000000000
310
000000000000000000000000000000000000000000000000000000000000000000000000DCDC00000000DC00DCDCDCDCDCDCDCDCDCDCDCDCDCDCDCDCDCDCDCDCDCDCDCDCDCDC000000000000000000000000000000000000000000000000000000000000000000000000000000000000000000000000000000000000000000
310
000000000000000000000000000000000000000000000000000000000000000000000000000000000000000000000000000000000000000000000000000000000000000000000000000000000000000000282828282800000000002800000000F50000000000000000DCDC0000000000000000000000000000000000000000
310
0000000000000000000000000000000000000000000000000000000000000000000000000000DCDC00000000DCDCDC0000000000000000000000000000000000000000000000000000000000000000000000000000000000000000000000000000000000000000000000000000000000000000000000000000000000000000
310
0000000000000000000000000000000000000000000000000000000000000000000000000000000000000000000000000000000000000000000000000000000000000000000000000000000000000000000000282828282800000000002800000000F50000000000000000DCDC000000000000000000000000000000000000
310
00000000000000000000000000000000000000000000000000000000000000000000000000000000DCDC00000000000000DCDCDCDCDCDCDCDCDCDCDCDCDCDCDCDCDCDCDCDCDCDCDCDCDCDC00000000000000000000000000000000000000000000000000000000000000000000000000000000000000000000000000000000
310
00000000000000000000000000000000000000000000000000000000000000000000000000000000000000000000000000000000000000000000000000000000000000000000000000000000000000000000000000282828282800000000002800000000F50000000000000000DCDC00000000000000000000000000000000
310
000000000000000000000000000000000000000000000000000000000000000000000000000000000000DCDC00000000000000DCDCDCDCDCDCDCDCDCDCDCDCDCDCDCDCDCDCDCDCDCDCDCDCDCDC0000000000000000000000000000000000000000000000000000000000000000000000000000000000000000000000000000
310
000000000000000000000000000000000000000000000000000000000000000000000000000000000000000000000000000000000000000000000000000000000000000000000000000000000000000000000000000000282828282800000000002800000000F50000000000000000DCDC0000000000000000000000000000
310
0000000000000000000000000000000000000000000000000000000000000000000000000000000000000000DCDC00000000DCDCDCDCDCDCDCDCDCDCDCDCDCDCDCDCDCDCDCDCDCDCDCDCDCDC000000000000000000000000000000000000DCDCDCDCDCDCDCDCDCDCDCDCDCDCDCDC0000000000000000000000000000000000
310
0000000000000000000000000000000000000000000000000000000000000000000000000000000000000000000000000000000000000000000000000000000000000000000000000000000000000000000000000000000000282828282800000000002800000000F50000000000000000DCDC000000000000000000000000
310
00000000000000000000000000000000000000000000000000000000000000000000000000000000000000000000DCDC00000000DC00DCDCDCDCDCDCDCDCDCDCDCDCDCDCDCDCDCDCDCDCDCDCDCDC000000000000000000000000000000000000DC00DCDCDCDCDCDCDCDCDCDCDCDCDCDC000000000000000000000000000000
310
00000000000000000000000000000000000000000000000000000000000000000000000000000000000000000000000000000000000000000000000000000000000000000000000000000000000000000000000000000000000000282828282800000000002800000000F50000000000000000DCDC00000000000000000000
310
000000000000000000000000000000000000000000000000000000000000000000000000000000000000000000000000DCDC00000000DCDCDCDCDCDCDCDCDCDCDCDCDCDCDCDCDCDCDCDCDCDCDCDCDCDCDCDCDCDCDCDC000000000000000000000000DCDCDCDCDCDCDCDCDCDCDCDCDCDCDC0000000000000000000000000000
310
000000000000000000000000000000000000000000000000000000000000000000000000000000000000000000000000000000000000000000000000000000000000000000000000000000000000000000000000000000000000000000282828282800000000002800000000F50000000000000000DCDC0000000000000000
310
0000000000000000000000000000000000000000000000000000000000000000000000000000000000000000000000000000DCDC00000000DCDCDCDCDCDCDCDCDCDCDCDCDCDCDCDCDCDCDCDCDCDCDCDCDCDCDCDCDCDCDCDC000000000000000000000000DCDCDCDCDCDCDCDCDCDCDCDCDCDCDC000000000000000000000000
310
0000000000000000000000000000000000000000000000000000000000000000000000000000000000000000000000000000000000000000000000000000000000000000000000000000000000000000000000000000000000000000000000282828282800000000002800000000F50000000000000000DCDC000000000000
310
00000000000000000000000000000000000000000000000000000000000000000000000000000000000000000000000000000000DCDC000000000000000000000000000000000000000000000000000000000000000000000000000000000000000000000000DCDCDC00000000000000000000000000000000000000000000
310
00000000000000000000000000000000000000000000000000000000000000000000000000000000000000000000000000000000000000000000000000000000000000000000000000000000000000000000000000000000000000000000000000282828282800000000002800000000F50000000000000000DCDC00000000
310
000000000000000000000000000000000000000000000000000000000000000000000000000000000000000000000000000000000000DCDC00000000DCDCDCDCDCDCDCDCDCDCDCDCDCDCDCDCDCDCDCDCDCDCDCDCDC00000000000000000000000000000000000000DCDCDCDCDCDCDCDCDCDCDCDCDCDCDC0000000000000000
310
000000000000000000000000000000000000000000000000000000000000000000000000000000000000000000000000000000000000000000000000000000000000000000000000000000000000000000000000000000000000000000000000000000282828282800000000002800000000F50000000000000000DCDC0000
310
0000000000000000000000000000000000000000000000000000000000000000000000000000000000000000000000000000000000000000DCDC00000000DCDCDCDCDCDCDCDCDCDCDCDCDCDCDCDCDCDCDCDCDCDCDCDC00000000DCDC0000000000000000000000000000DC00DCDCDCDCDCDCDCDCDCDCDCDCDC000000000000
310
0000000000000000000000000000000000000000000000000000000000000000000000000000000000000000000000000000000000000000000000000000000000000000000000000000000000000000000000000000000000000000000000000000000000282828282800000000002800000000F50000000000000000DCDC
310
00000000000000000000000000000000000000000000000000000000000000000000000000000000000000000000000000000000000000000000DCDC000000000000000000000000000000000000000000000000000000000000000000DC0000000000000000000000000000DCDCDCDCDCDCDCDCDCDCDCDCDCDCDC00000000
310
00000000000000000000000000000000000000000000000000000000000000000000000000000000000000000000000000000000000000000000000000000000000000000000000000000000000000000000000000000000000000000000000000000000000000282828282800000000002800000000F50000000000000000
310
DCDC00000000000000000000000000000000000000000000000000000000000000000000000000000000000000000000000000000000000000000000DCDC00000000000000280000000000000000000000000000000000000000000000000000DC00000000000000000000000000DCDCDCDCDCDCDCDCDCDCDCDCDCDCDC0000
310
000000DC2800000000000000000000000000000000000000000000000000000000000000000000000000000000000000000000000000000000000000000000000000000000000000000000000000000000000000000000000000000000000000000000000000000000282828282800000000002800000000F5000000000000
310
0000DCDC00000000000000000000000000000000000000000000000000000000000000000000000000000000000000000000000000000000000000000000DCDC00000000000000280000000000000000000000000000000000000000000000000000DC00000000000000000000000000DCDCDC000000000000000000000000
310
0000000000DC28000000000000000000DCDCDCDCDCDCDCDCDCDCDCDCDCDCDCDCDCDCDCDCDCDCDCDCDCDCDC00000000000000000000000000000000000000000000000000000000000000000000000000000000000000000000000000000000000000000000000000000000282828282800000000002800000000F500000000
310
00000000DCDC00000000000000000000000000000000000000000000000000000000000000000000000000000000000000000000000000000000000000000000DCDC0000000000000028000000000000000000000000000000000000000000000000000000DC000000000000000000000000DCDCDCDCDCDCDCDCDCDCDCDCDC
310
DCDCDCDCDC0000DC2800000000000000DCDCDCDCDCDCDCDCDCDCDCDCDCDCDCDCDCDCDCDCDCDCDCDCDCDCDCDCDC00000000000000000000000000000000000000000000000000000000000000000000000000000000000000000000000000000000000000000000000000000000282828282800000000002800000000F50000
310
000000000000DCDC00000000000000000000000000000000000000000000000000000000000000000000000000000000000000000000000000000000000000000000DCDC0000000000000028000000000000000000000000000000000000000000000000000000DC000000000000000000DCDCDCDCDCDCDCDCDCDCDCDCDCDC
310
DCDCDCDCDCDC000000DC2800000000000000DC0000000000000000000000000000000000000000000000000000000000000000000000000000000000000000000000000000000000000000000000000000000000000000000000000000000000000000000000000000000000000000282828282800000000002800000000F5
310
0000000000000000DCDC00000000000000000000000000000000000000000000000000000000000000000000000000000000000000000000000000000000000000000000DCDC0000000000000028000000000000000000000000000000000000000000000000000000DC000000000000000000DC0000000000000000000000
310
0000000000000000000000DC28000000000000DC0000000000000000000000000000000000000000000000000000000000000000000000000000000000000000000000000000000000000000000000000000000000000000000000000000000000000000000000000000000000000000002828282828000000000028000000
310
00F50000000000000000DCDC00000000000000000000000000000000000000000000000000000000000000000000000000000000000000000000000000000000000000000000DCDC000000000000002800000000000000000000000000000000000000000000000000000000DC00000000000000DC00000000000000000000
310
00000000000000000000000000DC28000000000000DC000000000000000000000000000000000000000000000000000000000000000000000000000000000000000000000000000000000000000000000000000000000000000000000000000000000000000000000000000000000000000000282828282800000000002800
310
000000F50000000000000000DCDC00000000000000000000000000000000000000000000000000000000000000000000000000000000000000000000000000000000000000000000DCDC0000000000000028000000000000000000000000000000000000000000000000DCDCDCDCDCDCDCDCDCDCDC00DC0000000000000000
310
000000000000000000000000000000DC280000000000DC0000000000000000000000000000000000000000000000000000000000000000000000000000000000000000000000000000000000000000000000000000000000000000000000000000000000000000000000000000000000000000000028282828280000000000
310
2800000000F50000000000000000DCDC00000000000000000000000000000000000000000000000000000000000000000000000000000000000000000000000000000000000000000000DCDC0000000000000028000000000000000000000000000000000000000000000000DC00000000DC00000000DCDC00000000000000
310
0000000000000000000000000000000000DC280000000000DC000000000000000000000000000000000000000000000000000000000000000000000000000000000000000000000000000000000000000000000000000000000000000000000000000000000000000000000000000000000000000000002828282828000000
310
00002800000000F50000000000000000DCDC00000000000000000000000000000000000000000000000000000000000000000000000000000000000000000000000000000000000000000000DCDC0000000000000028000000000000000000000000000000000000000000000000DC000000000000000000DCDCDC00000000
310
00000000000000000000000000000000000000DC2800000000DC0000000000000000000000000000000000000000000000000000000000000000000000000000000000000000000000000000000000000000000000000000000000000000000000000000000000000000000000000000000000000000000000282828282800
310
000000002800000000F50000000000000000DCDC00000000000000000000000000000000000000000000000000000000000000000000000000000000000000000000000000000000000000000000DCDC000000000000DC28282800000000000000DCDCDCDCDCDCDCDCDCDCDCDCDCDCDCDCDCDCDCDCDCDCDCDCDCDCDCDCDCDC
310
DCDCDCDCDCDCDCDCDCDCDCDC000000000000002828DC28DC0000DCDC000000000000000000000000000000000000000000000000000000000000000000000000000000000000000000000000000000000000000000000000000000000000000000000000000000000000000000000000000000000000000000000028282828
310
2800000000002800000000F50000000000000000DCDC00000000000000000000000000000000000000000000000000000000000000000000000000000000000000000000000000000000000000000000DCDC0000DCDCDCDCDC280028DCDCDCDCDCDCDCDCDCDCDC0000000000000000000000000000DCDCDCDCDC000000DC00
310
00000000000000000000DCDCDCDCDCDCDCDCDCDCDC28000028DCDCDCDCDC00000000000000000000000000000000000000000000000000000000000000000000000000000000000000000000000000000000000000000000000000000000000000000000000000000000000000000000000000000000000000000000002828
310
28282800000000002800000000F50000000000000000DCDC00000000000000000000000000000000000000000000000000000000000000000000000000000000000000000000000000000000000000000000DCDCDCDCDCDCDCDCDC28DC28DCDCDCDCDCDCDCDCDCDCDCDCDCDCDCDCDCDCDCDCDCDCDCDCDCDCDCDCDCDCDCDCDC
310
DCDCDCDCDCDCDCDCDCDCDCDCDCDCDCDCDCDCDCDCDCDCDC28DCDC28DCDCDCDCDCDC00000000000000000000000000000000000000000000000000000000000000000000000000000000000000000000000000000000000000000000000000000000000000000000000000000000000000000000000000000000000000000000
310
282828282800000000002800000000F50000000000000000DCDC00000000000000000000000000000000000000000000000000000000000000000000000000000000000000000000000000000000000000000000DCDC000000000000DCDC28280000DC00000000DCDCDCDCDCDCDCDCDCDCDCDCDCDCDCDCDCDCDCDCDCDCDCDC
310
DCDCDCDCDCDCDCDCDCDCDCDCDCDCDCDCDCDC000000000000002800DC28DC00000000000000000000000000000000000000000000000000000000000000000000000000000000000000000000000000000000000000000000000000000000000000000000000000000000000000000000000000000000000000000000000000
310
0000282828282800000000002800000000F50000000000000000DCDC00000000000000000000000000000000000000000000000000000000000000000000000000000000000000000000000000000000000000000000DCDC000000000000DCDC0028000000DC000000000000000000000000000000000000DC000000DCDCDC
310
000000DC0000000000000000000000000000000000000000000000DC28DCDCDC0000000000000000000000000000000000000000000000000000000000000000000000000000000000000000000000000000000000000000000000000000000000000000000000000000000000000000000000000000000000000000000000
310
000000002828282828000000000028000000F5F50000000000000000DCDC00000000000000000000000000000000000000000000000000000000000000000000000000000000000000000000000000000000000000000000DCDC00000000000000DC000000000000DC0000000000000000000000000000000000DC00000000
310
DC00000000DC00000000000000000000000000000000000000000000DCDC00DC0000DC0000000000000000000000000000000000000000000000000000000000000000000000000000000000000000000000000000000000000000000000000000000000000000000000000000000000000000000000000000000000000000
310
0000000000002828282828000000000028000000F5F50000000000000000DCDC00000000000000000000000000000000000000000000000000000000000000000000000000000000000000000000000000000000000000000000DCDC00000000000000DC000000000000DC0000000000000000000000000000000000DCDCDC
310
DCDCDCDCDCDCDCDC00000000000000000000000000000000000000000000DCDC00DC0000DC000000000000000000000000000000000000000000000000000000000000000000000000000000000000000000000000000000000000000000000000000000000000000000000000000000000000000000000000000000000000
310
00000000000000002828282828000000000028000000F5F50000000000000000DCDC00000000000000000000000000000000000000000000000000000000000000000000000000000000000000000000000000000000000000000000DCDC0000DCDCDCDCDCDC00000000000000DC0000000000000000000000000000000000
310
00000000DC000000000000000000000000000000000000000000000000000000DC0000DCDCDCDCDCDCDC000000000000000000000000000000000000000000000000000000000000000000000000000000000000000000000000000000000000000000000000000000000000000000DCDCDCDCDCDCDCDCDC00000000000000
310
000000000000000000002828282828000000000028000000F5F50000000000000000DCDC00000000000000000000000000000000000000000000000000000000000000000000000000000000000000000000000000000000000000000000DCDC000000000000000000000000000000DC000000000000000000000000000000
310
000000000000DC0000000000000000000000000000000000000000000000000000DC00000000000000DC0000000000000000000000000000000000000000000000000000000000000000000000000000000000000000000000000000000000000000000000000000000000000000000000DCDCDCDCDCDCDCDCDC0000000000
310
0000000000000000000000002828282828000000000028000000F5F52828000000000000DCDC00000000000000000000000000000000000000000000000000000000000000000000000000000000000000000000000000000000000000000000DCDC00000000000000000000000000000000DC00DCDCDCDCDCDCDCDCDCDCDC
310
DCDC00000000000000DC000000000000000000DCDCDCDCDCDCDCDCDCDCDCDCDC000000DC0000000000000000DC000000DCDCDCDCDCDC00000000000000000000000000000000000000000000000000000000000000000000000000000000000000000000000000000000000000000000DCDCDCDCDCDCDCDCDC000000000000
310
00000000000000000000000000002828282828000000000028000000F5F52828000000000000DCDC00000000000000000000000000000000000000000000000000000000000000000000000000000000000000000000000000000000000000000000DCDC00000000000000000000000000000000DCDCDCDCDCDCDCDCDCDCDC
310
DCDCDCDC00000000000000DC000000000000000000DCDCDCDCDCDCDCDCDCDCDCDCDC00DCDC000000000000000000DC000000DCDCDCDCDCDC00000000000000000000000000000000000000000000000000000000000000000000000000000000000000000000000000000000000000000000DCDCDCDCDCDCDCDCDC00000000
310
000000000000000000000000000000002828282828000000000028000000F5F52828000000000000DCDC00000000000000000000000000000000000000000000000000000000000000000000000000000000000000000000000000000000000000000000DCDC00000000000000000000000000000000000000000000000000
310
00000000000000000000000000DC0000000000000000000000000000000000000000000000000000000000000000000000DC0000DCDCDCDCDCDCDCDCDCDCDCDC000000000000000000000000000000000000000000000000000000000000000000000000000000000000000000000000000000000000000000000000000000
310
0000000000000000000000000000000000002800282828000000000028000000F5F52828000000000000DCDC00000000000000000000000000000000000000000000000000000000000000000000000000000000000000000000000000000000000000000000DCDC0000000000000000000000000000000000000000000000
310
000000000000000000000000000000DC0000000000000000000000000000000000000000000000000000000000000000000000DCDCDCDCDCDCDCDCDCDCDCDCDCDCDC00000000000000000000000000000000000000000000000000000000000000000000000000000000000000000000000000000000000000DCDCDCDCDCDC
310
DCDCDC00000000000000000000000000000000002800282828000000000028000000F5F52828000000000000DCDC00000000000000000000000000000000000000000000000000000000000000000000000000000000000000000000000000000000000000000000DCDC000000000000000000000000000000000000000000
310
000000000000000000000000000000000000DC0000000000000000000000000000000000000000000000000000000000000000000000000000000000000000000000000000000000000000000000000000000000000000000000000000000000000000000000000000000000000000000000000000000000DCDCDCDCDCDCDC
310
DCDCDCDCDC00000000000000000000000000000000002800282828000000000028000000F5F52828000000000000DCDC00000000000000000000000000000000000000000000000000000000000000000000000000000000000000000000000000000000000000000000DCDC00000000000000000000000000000000000000
310
0000000000000000000000000000000000000000DC0000DCDCDCDCDCDCDCDCDCDCDCDCDCDCDCDCDCDCDCDCDCDCDCDCDCDC00000000000000000000000000000000000000000000000000000000000000000000000000000000000000000000000000000000000000000000000000000000000000000000000000DC00DCDCDC
310
DCDCDCDCDCDCDCDCDC0000000000000000000000000000002828282828000000000028000000F5F52828000000000000DCDC00000000000000000000000000000000000000000000000000000000000000000000000000000000000000000000000000000000000000000000DCDC0000000000000000000000000000000000
310
00000000000000000000000000000000000000000000DCDC00DCDCDCDCDCDCDCDCDCDCDCDCDCDCDCDCDCDCDCDCDCDCDCDCDCDC00000000000000000000000000000000000000000000000000000000000000000000000000000000000000000000000000000000000000000000000000000000000000000000000000DCDCDC
310
DCDCDCDCDCDCDCDCDCDCDC0000000000000000000000000000002828280028000000000028000000F5F52828000000000000DCDC00000000000000000000000000000000000000000000000000000000000000000000000000000000000000000000000000000000000000000000DCDC000000000000000000000000000000
310
000000000000000000000000000000000000000000000000000000000000000000000000000000000000000000000000000000000000000000000000000000000000000000000000000000000000000000000000000000000000000000000000000000000000000000000000000000000000000000000000000000000000DC
310
DCDCDCDCDCDCDCDCDCDCDCDCDCDCDCDCDC00000000000000000000002800282828000000000028000000F5F52828000000000000DCDC00000000000000000000000000000000000000000000000000000000000000000000000000000000000000000000000000000000000000000000DCDC00000000000000000000000000
310
00000000000000000000000000000000000000000000000000000000000000000000000000000000000000000000000000000000000000000000000000000000000000000000000000000000000000000000000000000000000000000000000000000000000000000000000000000000000000000000000000000000000000
310
00DCDCDCDCDCDCDCDCDCDCDCDCDCDCDCDCDC00DCDC0000000000000000002800282828000000000028000000F5F52828000000000000DCDC00000000000000000000000000000000000000000000000000000000000000000000000000000000000000000000000000000000000000000000DCDC0000000000000000000000
310
00000000000000000000000000000000000000000000000000000000000000000000000000000000000000000000000000000000000000000000000000000000000000000000000000000000000000000000000000000000000000000000000000000000000000000000000000000000000000000000000000000000000000
310
0000000000000000000000000000000000000000000000DCDC000000000000002800282828000000000028000000F5F52828000000000000DCDC00000000000000000000000000000000000000000000000000000000000000000000000000000000000000000000000000000000000000000000DCDC000000DCDCDCDCDCDC
310
DCDCDCDCDCDCDCDCDCDCDCDCDCDCDCDCDCDCDCDCDCDCDCDCDCDCDCDCDCDCDCDCDCDCDCDCDC000000000000000000000000000000000000000000000000000000000000000000000000000000000000000000000000000000000000000000000000000000000000000000000000000000000000000000000000000000000000
310
000000000000000000000000000000000000000000000000000000DCDC00000000002800282828000000000028000000F5F52828000000000000DCDC00000000000000000000000000000000000000000000000000000000000000000000000000000000000000000000000000000000000000000000DCDC000000DCDCDCDC
310
DCDCDCDCDCDCDCDCDCDCDCDCDCDCDCDCDCDCDCDCDCDCDCDCDCDCDCDCDCDCDCDCDCDCDCDCDCDCDC00000000000000000000000000000000000000000000000000000000000000000000000000000000000000000000000000000000000000000000000000000000000000000000000000000000000000000000000000000000
310
00000000000000000000000000000000000000000000000000000000000000DCDC0000002800282828000000000028000000F5F52828000000000000DCDC00000000000000000000000000000000000000000000000000000000000000000000000000000000000000000000000000000000000000000000DCDC000000DCDC
310
DCDCDCDCDCDCDCDCDCDCDCDCDCDCDCDCDCDCDCDCDCDCDCDCDCDCDCDCDCDCDCDCDCDCDCDCDCDCDCDCDCDCDCDCDCDCDCDCDCDCDCDC000000000000000000000000000000000000000000000000000000000000000000000000000000000000000000000000000000000000000000000000000000000000000000282828282828
310
2828282828282828282828280000000000000000000000000000000000000000000000DCDC002800282828000000000028000000F5F52828000000000000DCDC00000000000000000000000000000000000000000000000000000000000000000000000000000000000000000000000000000000000000000000DCDC000000
310
DCDCDCDCDCDCDCDCDCDCDCDCDCDCDCDCDCDCDCDCDCDCDCDCDCDCDCDCDCDCDCDCDCDCDCDCDCDCDCDCDCDCDCDCDCDCDCDCDCDCDCDCDCDC00000000000000000000000000000000000000000000000000000000000000000000000000000000000000000000000000000000000000000000000000000000000000000028282828
310
282828282828282828282828282800000000000000000000000000000000000000000000000000DCDC00282828000000000028000000F5F52828000000000000DCDC00000000000000000000000000000000000000000000000000000000000000000000000000000000000000000000000000000000000000000000DCDC00
310
0000DCDCDCDCDCDCDCDCDCDCDCDCDCDCDCDCDCDCDCDCDCDCDCDCDCDCDCDCDCDCDCDCDCDCDCDCDCDCDCDCDCDCDCDCDCDCDCDCDCDCDCDCDCDCDCDCDCDC00000000000000000000000000000000000000000000000000000000000000000000280000000000000000000000000000000000000000000000000000000028282828
310
2828282828282828282828282828282828000000000000000000000000000000000000000000000000002800282828000000000028000000F5F52828000000000000DCDC00000000000000000000000000000000000000000000000000000000000000000000000000000000000000000000000000000000000000000000DC
310
DC000000DCDCDCDCDCDCDCDCDCDCDCDCDCDCDCDCDCDCDCDCDCDCDCDCDCDCDCDCDCDCDCDCDCDCDCDCDCDCDCDCDCDCDCDCDCDCDCDCDCDCDCDCDCDCDCDCDCDC0000000000000000000000000000000000000000000000000000000000000000000028282828282828282828282828282828282828282828282828282828282828
310
28282828282828282828282828282828282828000028282828282828282828282828282828282828282828282828282828000000000028000000F5F50000000000000000DCDC000000000000000000000000000000000000000000000000000000000000000000000000000000000000000000000000000000000000000000
310
00DCDC00000000000000000000000000000000000000000000000000000000000000000000000000000000000000000000000000000000000000000000000000000000000000000000000000000000000000000000000000000000000000000000002800000000000000000000000000000000000000000000000000000000
310
000000000000000000000000000000000000000000000000000000000000000000000000000000000000000000002800282828000000000028000000F5F50000000000000000DCDC00000000000000000000000000000000000000000000000000000000000000000000000000000000000000000000000000000000000000
310
000000DCDC000000DCDCDCDCDCDCDCDCDCDCDCDCDCDCDCDCDCDCDCDCDCDCDCDCDCDCDCDCDCDCDCDCDCDCDCDCDCDCDCDCDCDCDCDCDCDCDCDCDCDCDCDCDCDCDCDCDC0000000000000000000000000000000000000000000000000000000000000000000000280000000000000000000000000000000000000000000000000000
310
000000000000000000000000000000000000000000000000000000000000000000000000000000000000000000000000280028282800000000002800000000000000000000000000DCDC0000000000000000000000000000000000000000000000000000000000000000000000000000000000000000000000000000000000
310
0000000000DCDC000000DCDCDCDCDCDCDCDCDCDCDCDCDCDCDCDCDCDCDCDCDCDCDCDCDCDCDCDCDCDCDCDCDCDCDCDCDCDCDCDCDCDCDCDCDCDCDCDCDCDCDCDCDCDCDCDCDC000000000000000000000000000000000000000000000000000000000000000000000028000000000000000000000000000000000000000000000000
310
0000000000000000000000000000000000000000000000000000000000000000000000000000000000000000000000000000282828282800000000002800000000000000000000000000DCDC000000000000000000000000000000000000000000000000000000000000000000000000000000000000000000000000000000
310
00000000000000DCDC00DCDCDCDCDCDC000000000000000000000000000000000000000000000000000000000000000000000000000000000000000000000000000000000000000000000000000000000028282828282828282828282828280000000000000000002800000000000000000000000000000000000000000000
310
00000000000000000000000000000000000000000000000000000000000000000000000000000000000000000000000000000000280028002800000000002800000000000000000000000000DCDC00000000000000000000000000000000000000000000000000000000000000000000000000000000000000000000000000
310
000000000000000000DCDC00DCDCDCDCDC0000000000000000000000000000000000000000000000000000000000000000000000000000000000000000000000000000000000000000000000000000000000002800282828282828282828282828000000000000000000280000000000000000000000000000000000000000
310
000000000000000000000000000000000028282828282828282828282828282828282828282828282828282828000000000000000000282828282800000000002800000000F50000000000000000DCDC0000000000000000000000000000000000000000000000000000000000000000000000000000000000000000000000
310
0000000000000000000000DCDC000000000000000000000000000000000000000000000000000000000000000000000000000000000000000000000000000000000000000000000000000000000000000000000000282828000000000000000000000000000000000000000028000000000000000000000000000000000000
310
0000000000000000000000000000000000000028282828282828282828282828282828282828282828282828282828000000000000000000280028282800000000002800000000F50000000000000000DCDC000000000000000000000000000000000000000000000000000000000000000000000000000000000000000000
310
00000000000000000000000000DCDC00000000000000000000000000000000000000000000000000000000000000000000000000000000000000000000000000000000000000000000000000000000000000000000000028282828282800000000000000000000000000000000002800000000000000000000000000000000
310
00000000000000000000000000000000000000000000000000000000000000000000000000000000000000000000000000000000000000000000280028282800000000002800000000F50000000000000000DCDC00000000000000000000000000000000000000000000000000000000000000000000000000000000000000
310
000000000000000000000000000000DCDC0000000000000000000000000000000000000000000000000000000000000000000000000000000000000000000000000000000000000000000000000000000000000000000000002800282828280000000000000000000000000000000000280000282800282800000000000000
310
000000000000000000000000000000000000000000000028282828282828282828282828282828282828282828282828282828000000000000000000280028282800000000002800000000F50000000000000000DCDC0000000000000000000000000000000000000000000000000000000000000000000000000000000000
310
0000000000000000000000000000000000DCDC000000000000000000000000000000000000000000000000000000000000000000000000000000000000000000000000000000000000000000000000000000000000000000000000282828000000000000000000000000000000000000000028000028280028280000000000
310
0000000000000000000000002800000000000000000000000028282828282828282828282828282828282828282828282828282828000000000000000000280028282800000000002800000000F50000000000000000DCDC000000000000000000000000000000000000000000000000000000000000000000000000000000
310
00000000000000000000000000000000000000DCDC00000000000000000000000000000000000000000000000000000000000000000000000000000000000000000000000000000000000000000000000000000000000000000000000028282828282828000000000000000000000000000000002800002828000000000000
310
00000000000000000000000000002828000000000000000000000000000000000000000028282828282828282828280000000000000000000000000000000000280028282800000000002800000000F50000000000000000DCDC00000000000000000000000000000000000000000000000000000000000000000000000000
310
000000000000000000000000000000000000000000DCDC0000000000000000000000000000000000000000000000000000000000000000000000000000000000000000000000000000000000000000000000000000000000000000000000002800282828282800000000000000000000000000000000280000282800282828
310
282828282828282828282800000000002828282828282828282828282828282828282828282828282828282828282828282828282828282828282828282828282828282828282800000000002800000000F50000000000000000DCDC0000000000000000000000000000000000000000000000000000000000000000000000
310
0000000000000000000000000000000000000000000000DCDC000000000000000000000000000000000000000000000000000000000000000000000000000000000000000000000000000000000000000000000000000000000000000000000000282828000000000000000000000000000000000000000028000028280028
310
2828282828282828282828282800000000002800000000000000000000000000000000000000000000000000000000000000000000000000000000000000000000000000280028282800000000002800000000F50000000000000000DCDC000000000000000000000000000000000000000000000000000000000000000000
310
00000000000000000000000000000000000000000000000000DCDC00000000000000000000000000000000000000000000000000000000000000000000000000000000000000000000000000000000000000000000000000000000000000000000000028282828282828282828282828282828282800000000002800002828
310
00000000000000000000000000000000000000002800000000000000000000000000000000000000000000000000000000000000000000000000000000000000000000000000280028282800000000002800000000F50000000000000000DCDC00000000000000000000000000000000000000000000000000000000000000
310
000000000000000000000000000000000000000000000000000000DCDC0000000000000000000000000000000000000000000000000000000000000000000000000000000000000000000000000000000000000000000000000000000000000000000000002828282828282828282828282828282828280000000000280028
310
282828282828282828282828282828280000000000002800000000000000000000000000000000000000000000000000000000000000000000000000000000000000000000000000280028282800000000002800000000F50000000000000000DCDC0000000000000000000000000000000000000000000000000000000000
310
0000000000000000000000000000000000000000000000000000000000DCDC000000000000000000000000000000000000000000000000000000000000000000000000000000000000000000000000000000000000000000000000000000000000000000000000282828282828282828282828282828282800000000000028
310
0028282828282828282828282828282828000028280000002800000000000000DCDCDCDCDCDCDCDC00000000000000000000000000000000000000000000000000000000000000000000280028282800000000002800000000F50000000000000000DCDC000000000000000000000000000000000000000000000000000000
310
00000000000000000000000000000000000000000000000000000000000000DCDC00000000000000000000000000000000000000000000000000000000000000000000000000000000000000000000000000000000000000000000000000000000000000000000000028282828282828282828282828282828000000000000
310
00280000000000000000000000000000000000000000002800002800000000DCDCDCDCDCDCDCDCDCDCDC00000000000000000000000000000000000000000000000000000000000000000000280028282800000000002800000000F50000000000000000DCDC00000000000000000000000000000000000000000000000000
310
000000000000000000000000000000000000000000000000000000000000000000DCDC0000000000000000000000000000000000000000000000000000000000000000000000000000000000000000000000000000000000000000000000000000000000000000000000000000000000000000000000000000000000000000
310
000000280000000000000000000000000000000000000000002800002800000000DC00DCDCDCDCDCDCDC000000000000000000000000000000000000000000000000000000000000000000000000280028282800000000002800000000F50000000000000000DCDC0000000000000000000000000000000000000000000000
310
0000000000000000000000000000000000000000000000000000000000000000000000DCDC000000000000000000000000000000000000000000000000000000000000000000000000000000000000000000000000000000000000000000000000000000000000000000000000000000000000000000000000000000000000
310
0000000000280000000000000000000000000000000000000000000028002800000000DCDCDCDCDCDCDCDCDC000000000000000000000000000000000000000000000000000000000000000000000000280028282800000000002800000000F50000000000000000DCDC000000000000000000000000000000000000000000
310
00000000000000000000000000000000000000000000000000000000000000000000000000DCDC00000000000000000000000000000000000000000000000000000000000000000000000000000000000000000000000000000000000000000000000000000000000000000000000028282828282828282828282828280000
310
00000000000000280000000000000000000000000000000000000000000028002800000000000000DCDCDCDCDCDCDCDC0000000000000000000000000000000000DCDCDCDC00000000000000000000000000280028282800000000002800000000F50000000000000000DCDC00000000000000000000000000000000000000
310
000000000000000000000000000000000000000000000000000000000000000000000000000000DCDC0000000000000000000000000000000000000000000000000000000000000000000000000000000000000000000000000000000000000000000000000000000000000000000000002800282828282828282828282828
310
000000000000000000280000000000000000000000000000000000000000000000282800000000DCDCDCDCDCDCDCDCDCDCDC0000000000000000000000000000000000DCDCDCDC00000000000000000000000000282828282800000000002800000000F50000000000000000DCDC0000000000000000000000000000000000
310
0000000000000000000000000000000000000000000000000000000000000000000000000000000000DCDC000000000000000000000000000000000000000000000000000000000000000000000000000000000000000000000000000000000000000000000000000000000000000000000000282828000000000000000000
310
0000000000000000000000280000000000000000000000000000000000000000000000282800000000DC00DCDCDCDCDCDCDCDCDCDCDC0000000000000000000000000000DCDCDCDCDCDCDCDCDC000000000000000000282828282800000000002800000000F50000000000000000DCDC000000000000000000000000000000
310
00000000000000000000000000000000000000000000000000000000000000000000000000000000000000DCDC00000000000000000000000000000000000000000000000000000000000000000000000000000000000000000000000000000000000000000000000000000000000000000000000028282828282800000000
310
00000000000000000000000000280000000000000000000000000000000000000000000000002800000000DCDCDCDCDCDCDCDCDCDCDCDCDC0000000000000000000000000000DCDCDCDCDCDCDCDCDCDCDCDCDC0000000000282800282800000000002800000000F50000000000000000DCDC00000000000000000000000000
310
000000000000000000000000000000000000000000000000000000000000000000000000000000000000000000DCDC0000000000000000000000000000000000000000000000000000000000000000000000000000000000000000000000000000000000000000000000000000000000000000000000002800282828280000
310
000000000000000000000000000000280000000000000000000000000000000000000000000000002800000000000000000000000000000000000000000000000000000000000000000000000000000000000000DC0000000028282800282800000000002800000000F50000000000000000DCDC0000000000000000000000
310
0000000000000000000000000000000000000000000000000000000000000000000000000000000000000000000000DCDC000000000000000000000000000000000000000000000000000000000000000000000000000000000000000000000000000000000000000000000000000000000000000000000000282828000000
310
0000000000000000000000000000000000280000000000000000000000000000000000000000000000002828000000DCDCDCDCDCDCDCDCDCDCDCDCDCDCDCDCDCDCDCDC0000000000000000000000000000000000000000DC00000028282800282800000000002800000000F50000000000000000DCDC000000000000000000
310
00000000000000000000000000000000000000000000000000000000000000000000000000000000000000000000000000DCDC00000000000000000000000000000000000000000000000000000000000000000000000000000000000000000000000000000000000000000000000000000000000000000000000028282828
310
28282800000000000000000000000000000000280000000000000000000000000000000000000000000000002828000000DCDCDCDCDCDCDCDCDCDCDCDCDCDCDCDCDCDCDC0000DCDCDC00000000000000000000000000000000DC000000282828002828282828282828DCDCDCDCF5DCDCDCDC00000000DCDC00000000000000
310
000000000000000000000000000000000000000000000000000000000000000000000000000000000000000000000000000000DCDC0000000000000000000000000000000000000000000000000000000000000000000000000000000000000000000000000000000000000000000000000000000000000000000000002800
310
282828282800000000000000000000000000000000280000000000000000000000000000000000000000000000002800280000000000000000000000000000000000000000000000000000DC000000000000000000000000000000DC00002828280000282828000028002800000000F50000DCDC00000000DCDC0000000000
310
0000000000000000000000000000000000000000000000000000000000000000000000000000000000000000000000000000000000DCDC000000000000000000000000000000000000000000000000000000000000000000000000000000000000000000000000000000000000000000000000000000000000000000000000
310
2828280000000000000000000000000000000000000000280000000000000000000000000000000000000000000000002800280000000000000000000000000000000000000000000000000000DC00000000000000000000000000000000DC280028280000282800002800002800000000F50000DCDC00000000DCDC000000
310
00000000000000000000000000000000000000000000000000000000000000000000000000000000000000000000000000000000000000DCDC00000000000000000000000000000000000000000000000000000000000000000000000000000000000000000000000000000000000000000000000000000000000000000000
310
0000282828282828282828282828282828282828282828000028000000000000000000000000000000000000000000000000280000280000000000000000000000000000000000000000000000000000DC0000000000000000000000000000DCDC282828000000282800280000282800000000F50000DC0000000000DCDC00
310
000000000000000000000000000000000000000000000000000000000000000000000000000000000000000000000000000000000000000000DCDC0000000000000000000000000000000000000000000000000000000000000000000000000000000000000000000000000000000000000000000000000000000000000000
310
00000000282828282828282828282828282828282828282828282828000000000000000000000000000000000000000000000000280000002800000000000000000000000000000000000000000000000000DC000000000000000000000000000000DC282800000000282828000028002800000000F5000000DCDC000000DC
310
DC00000000000000000000000000000000000000000000000000000000000000000000000000000000000000000000000000000000000000000000DCDC000000000000000000000000000000000000000000000000000000000000000000000000000000000000000000000000000000000000000000000000000000000000
310
00000000000000000000000000000000000000000000000000000000002800000000000000000000000000000000000000000000000028000000282828000000000000000000000000000028280000000000000000DC000000000000000000000000002828280000000000282800002800002800000000F500DCDCDCDC0000
310
00DCDC00000000000000000000000000000000000000000000000000000000000000000000000000000000000000000000000000000000000000000000DCDC00000000000000000000000000000000000000000000000000000000000000000000000000000000000000000000000000000000000000000000000000000000
310
0000000000000000000000000000000000000000000000000000000000000028000000000000000000000000000000000000000000000000000000282828280000000000000000000000000000282800000000000000DCDC0000000000000000000000282800280000000000002828002800000028000000F5F500DCDCDCDC
310
000000DCDC00000000000000000000000000000000000000000000000000000000000000000000000000000000000000000000000000000000000000000000DCDC000000DCDCDCDCDCDCDCDCDCDCDCDCDCDCDCDCDCDCDCDCDCDCDCDCDCDCDCDCDCDCDCDCDCDCDCDCDCDCDCDCDCDCDCDCDCDCDCDCDC00000000000000000000
310
0000000000000000000000000000000000000000000000000000000000000000002828000000000000000000000000000000000000000000000028282828282828282828282828282828282828282828282828282828282828DC282828282828F528F5F5F5F5F5F5F5F5F5F5F5F5F5F5F5F5F5F5F5F5F5F5F5F5F5F5F5DCDC
310
DCDC000000DCDC00000000000000000000000000000000000000000000000000000000000000000000000000000000000000000000000000000000000000000000DCDC000000DCDCDCDCDCDCDCDCDCDCDCDCDCDCDCDCDCDCDCDCDCDCDCDCDCDCDCDCDCDCDCDCDCDCDCDCDCDCDCDCDCDCDCDCDCDCDCDCDC0000000000000000
310
00000000000000000000000000000000000000000000000000000000000000000000002800280000000000000000000000000000000000000000000028282828282828282828282828282828282828282828282828282828282828282828282828282828282828280000000000000000002828000000280028000000000000
310
DCDCDCDC000000DCDC00000000000000000000000000000000000000000000000000000000000000000000000000000000000000000000000000000000000000000000DCDC00000000000000000000000000000000000000000000000000000000000000000000000000000000000000000000000000000000000000000000
310
000000000000000000000000000000000000000000000000000000000000000000000000002828282828282828282828282828282828280000000000000028282828282828282828282828282828282828282828282828282828282828282828282828282828282828282828DC28DC282828DC282800002800002800000000
310
0000DCDCDCDC000000DCDC00000000000000000000000000000000000000000000000000000000000000000000000000000000000000000000000000000000000000000000DCDC000000DCDCDCDCDCDCDCDCDCDCDCDCDCDCDCDCDCDCDCDCDCDCDCDCDCDCDCDCDCDCDCDCDCDCDCDCDCDCDCDCDCDCDCDCDCDCDCDCDCDCDCDCDC
310
0000000000000000000000000000000000000000000000000000000000000000000000000000002800002800000000000000000000000000280000000000000028002828280000280000000000000000000000000028282828280000000000000000000000000000000000000000DC00DC280000DC28280028000028280000
310
00000000DCDCDCDC000000DCDC00000000000000000000000000000000000000000000000000000000000000000000000000000000000000000000000000000000000000000000DCDC000000DCDCDCDCDCDCDCDCDCDCDCDCDCDCDCDCDCDCDCDCDCDCDCDCDCDCDCDCDCDCDCDCDCDCDCDCDCDCDCDCDCDCDCDCDCDCDCDCDCDCDC
310
DCDC0000000000000000000000000000000000000000000000000000000000000000000000000000002800000028000000000000000000000000280000000000000028002800000000000000000000000000000000000028282828280000000000000000000000000000000000000000DC0028000000002828280000280028
310
000000000000DCDCDCDC000000DCDC00000000000000000000000000000000000000000000000000000000000000000000000000000000000000000000000000000000000000000000DCDC000000DCDCDCDCDCDCDCDCDCDCDCDCDCDCDCDCDCDCDCDCDCDCDCDCDCDCDCDCDCDCDCDCDCDCDCDCDCDCDCDCDCDCDCDC0000000000
310
0000000000000000000000000000000000000000000000000000000000000000000000000000000000000028000000002800000000000000000000002800000000000000DC002800000000000000000000000000000000000000002828280000000000000000000000000000000000000000DC280000282800282800002800
310
0028000000000000DCDCDCDC000000DCDC00000000000000000000000000000000000000000000000000000000000000000000000000000000000000000000000000000000000000000000DCDC000000DCDCDCDCDCDCDCDCDCDCDCDCDCDCDCDCDCDCDCDCDCDCDCDCDCDCDCDCDCDCDCDCDCDCDCDCDCDCDCDCDCDCDCDC000000
310
000000000000000000000000000000000000000000000000000000000000000000000000000000000000000000280000000028000000000000000000000028000000000000DCDC0028000000000000000000000000000000000000000028282800000000000000000000000000000000000000DC0000280000000028280028
310
00000028000000000000DCDCDCDC000000DCDC00000000000000000000000000000000000000000000000000000000000000000000000000000000000000000000000000000000000000000000DCDC000000000000000000000000000000000000000000000000000000000000000000000000000000000000000000000000
310
00000000000000000000000000000000000000000000000000000000000000000000000000000000000000000000002800000000002800000000000000000000280000000000DCDC280028000000000000000000000000000000000000000028282800000000000000000000000000000000000000DC000000280000282828
310
280000002828000000000000DCDC0000000000DCDC00000000000000000000000000000000000000000000000000000000000000000000000000000000000000000000000000000000000000000000DCDC00000000000000000000000000000000000000000000000000000000000000000000000000000000000000000000
310
0000000000000000000000000000000000000000000000000000000000000000000000000000000000000000000000000028000000000000280000000000000000002800000000DC0000280028000000000000000000000000000000000000000028282800000000000000000000000000000000000000DC00000000282800
310
002800000028002800000000000000000000000000DCDC00000000000000000000000000000000000000000000000000000000000000000000000000000000000000000000000000000000000000000000DCDC000000DCDCDCDCDCDCDCDCDCDCDCDCDCDCDCDCDCDCDCDCDCDCDCDCDCDCDCDCDCDCDCDCDCDCDCDCDCDCDCDCDC
310
000000000000000000000000000000000000000000000000000000000000000000000000000000000000000000000000000000280000000000000000000000000000000028000000DC000000280028000000000000000000000000000000000000002828282800000000000000000000000000000000000000DC0000000000
310
0000002800002800002800000000000000DC0000000000DCDC00000000000000000000000000000000000000000000000000000000000000000000000000000000000000000000000000000000000000000000DCDC000000DCDCDCDCDCDCDCDCDCDCDCDC0000000000DC0000DCDCDCDCDCDC0000DC0000DCDCDCDCDCDC0000
310
00DC0000000000000000000000000000000000000000000000000000000000000000000000000000000000000000000000000000002800000000000000000000000000000000282828DC28282828282828282828282828282828282828282828282828282828282828282828282828282828282828282828282828DC282828
310
28282828282828280000282800000000000000DCDC00000000DCDC00000000000000000000000000000000000000000000000000000000000000000000000000000000000000000000000000000000000000000000DCDC000000DC00000000000000000000000000000000DC00000000000000000000DC0000000000000000
310
000000DC000000000000000000000000000000000000000000000000000000000000000000000000000000000000000000000000000000282828282828282828282828282828282828DCDC28282828282828282828282828282828282828282828282828282828282828282828282828282828282828282828282828DC2828
310
282828282828282800000028002800000000000000DCDC00000000DCDC00000000000000000000000000000000000000000000000000000000000000000000000000000000000000000000000000000000000000000000DCDC000000DCDCDCDCDCDCDCDCDCDCDCDCDCDCDCDCDCDCDCDCDCDCDCDCDCDCDCDCDCDCDCDCDCDCDC
310
DCDCDCDCDCDC0000000000000000000000000000000000000000000000000000000000000000000000000000000000000000000000000000000000000000000000000000000000000000DC000000002828282828282828282828282828282828282828282828282828282828282828282828282828282828282828282828DC
310
282828282800DCDCDCDCDCDCDCDCDCDCDCDCDCDCDCDCDCDCDC00000000DCDC00000000000000000000000000000000000000000000000000000000000000000000000000000000000000000000000000000000000000000000DCDC000000DCDCDCDCDCDCDCDCDCDC00000000000000DC000000DCDCDC00000000DC00000000
310
DCDC0000000000DC00000000000000000000000000000000000000000000000000000000000000000000000000DCDCDCDCDCDCDCDCDCDCDCDCDCDCDCDCDCDCDCDCDCDCDC00000000000000DC000000000028282828282828282828282828282828282828282828282828282828282828282828282828282828282828282828
310
28DC2828282828000000002800280000282800000000000000000000000000DCDC00000000000000000000000000000000000000000000000000000000000000000000000000000000000000000000000000000000000000000000DCDC000000DCDCDCDCDCDCDCDCDCDC00000000000000DC000000DCDCDC00000000DC0000
310
0000DCDC0000000000DC00000000000000000000000000000000000000000000000000000000000000000000000000DCDCDCDCDCDCDCDCDCDCDCDCDCDCDCDCDCDCDCDCDCDCDC000000000000DC0000000000000000002800282800280000000000000000280028280028280000000000000028000028000028000000000000
310
000028DC2800002800000000002828000028002800000000000000000000000000DCDC00000000000000000000000000000000000000000000000000000000000000000000000000000000000000000000000000000000000000000000DCDC000000DCDCDCDCDCDCDCDCDCDCDCDCDCDCDCDCDCDCDCDCDCDCDCDCDCDCDCDCDC
310
DCDCDCDCDCDCDCDCDCDCDCDC00000000000000000000000000000000000000000000000000000000000000000000000000DCDCDCDCDCDCDCDCDCDCDCDCDCDCDC00000000000000000000000000DC00000000000000000028002800002800280000000000002800280000282828000000000000280000280028000028000000
310
0000002800DC0028000028000000002800002800002800000000000000000000000000DCDC00000000000000000000000000000000000000000000000000000000000000000000000000000000000000000000000000000000000000000000DCDC000000DCDCDCDCDCDCDCDCDCDCDC000000000000DC000000DCDCDC000000
310
00DC00000000DCDC0000000000DC00000000000000000000000000000000000000000000000000000000000000000000000000DCDCDCDCDCDCDCDCDCDCDCDCDCDC0000DCDCDCDCDCDCDCDCDCDCDCDC000000000000000000280028000000002800280000000028002800000000280028000000002800282800000028002800
310
000000282800DC000000280000280000002800280000282800000000000000000000000000DCDC00000000000000000000000000000000000000000000000000000000000000000000000000000000000000000000000000000000000000000000DCDC000000DCDCDCDCDCDCDCDCDCDCDC000000000000DC000000DCDCDC00
310
000000DC00000000DCDC0000000000DC000000000000000000000000000000000000000000000000000000000000000000000000000000000000000000000000000000000000000000000000000000000000000000000000002800280000000000002800280000280028000000002800280028000028002800000000000028
310
2828000028000028DC000000002828002800002828000028002800000000000000000000000000DCDC00000000000000000000000000000000000000000000000000000000000000000000000000000000000000000000000000000000000000000000DCDC000000DC00000000000000000000000000000000DC0000000000
310
0000000000DC0000000000000000000000DC00000000000000000000000000000000000000000000000000000000000000000000000000000000000000000000000000000000000000000000000000000000000000000000000028002800000000000000002800282800280000000000280000280028280028000000000000
310
00000028282800002800DC000000000000280028002800002800002800000000000000000000000000DCDC00000000000000000000000000000000000000000000000000000000000000000000000000000000000000000000000000000000000000000000DCDC000000DCDCDCDCDCDCDCDCDCDCDCDCDCDCDCDCDCDCDCDCDC
310
DCDCDCDCDCDCDCDCDCDCDCDCDCDCDCDCDCDCDCDC0000000000000000000000000000000000000000000000000000000000000000000000000000000000000000000000000000000000000000000000000000000000000000002828282828282828282828282828282828282828282828282828282828282828282828282828
310
282828282828282828282828DC282828282828282828282828280000282800000000000000000000000000DCDC00000000000000000000000000000000000000000000000000000000000000000000000000000000000000000000000000000000000000000000DCDC000000DC00000000DCDCDCDCDCDCDC0000000000DC00
310
000000000000000000DC0000000000000000000000DC000000000000000000000000000000000000000000000000000000000000000000000000000000000000000000000000000000000000000000000000000000000000000000000000280000000000000000000000000028000000000000280000000000002800000000
310
0000000000000000002800000000DC000000000000000028000000280028002800000000000000000000000000DCDC00000000000000000000000000000000000000000000000000000000000000000000000000000000000000000000000000000000000000000000DCDC000000DC0000000000DCDCDCDCDC000000000000
310
DC00DCDCDCDCDCDCDCDC00DC00DCDCDCDCDCDCDCDC0000DC00000000000000000000000000000000000000000000000000000000000000000000000000000000000000000000000000000000000000000000000000000000000000002828282828282828282828282828282828282828282828282828282828282828282828
310
282828282828282828282828282828DC28282828282828282828282828282800002800000000000000000000000000DCDC00000000000000000000000000000000000000000000000000000000000000000000000000000000000000000000000000000000000000000000DCDC000000DC0000000000DCDCDCDCDC00000000
310
0000DC00DCDCDCDCDCDCDCDC00DC00DCDCDCDCDCDCDCDC0000DC0000000000000000000000000000000000000000000000000000000000000000000000000000000000000000000000000000000000000000000000000000000000000000000000000000000000000000000000000000000000000000280000000000000000
310
0000000000000000000000000000000000DC00000000000000000000002800280000282800000000000000000000000000DCDC00000000000000000000000000000000000000000000000000000000000000000000000000000000000000000000000000000000000000000000DCDC000000DC000000000000000000000000
310
00000000DC00000000000000000000DC0000000000000000000000DC000000000000000000000000000000000000000000000000000000000000000000000000000000000000000000000000000000000000000000000000000000000000000000000000000000000000000000000000000000000000002800000000000000
310
00000000000000000000000000000000000000DC00000000000000000000002828000028002800000000000000000000000000DCDC00000000000000000000000000000000000000000000000000000000000000000000000000000000000000000000000000000000000000000000DCDC000000DCDCDCDCDCDCDCDCDCDCDC
310
DCDCDCDCDCDCDCDCDCDCDCDCDCDCDCDCDCDCDCDCDCDCDCDCDCDCDCDCDCDC00000000000000000000000000000000000000000000000000000000000000000000000000000000000000000000000000000000282828282828282828282828282828282828282828282828000000000000000000000000000000280000000000
310
000000000000000000000000000000000000000000DC00000000000000000000002800000028002800000000000000000000000000DCDC00000000000000000000000000000000000000000000000000000000000000000000000000000000000000000000000000000000000000000000DCDC000000000000000000000000
310
00000000000000000000000000000000000000000000000000000000000000000000000000000000000000000000000000000000000000000000000000000000000000000000000000000000000000000000002828282828282828282828282828282828282828282828282800000000000000000000000000002800000000
310
0000000000000000000000000000000000000000000000DC00000000000000000000002800002800002800000000000000000000000000DCDC00000000000000000000000000000000000000000000000000000000000000000000000000000000000000000000000000000000000000000000DCDC000000000000000000DC
310
DCDCDCDCDCDCDCDCDCDCDCDCDCDCDCDCDCDCDCDCDCDCDCDCDCDCDCDCDC0000000000000000000000000000000000000000000000000000000000000000000000000000000000000000000000000000000000000000282828282828000000000000000000000000000000000000000000000000000000000000000000280000
310
000000000000000000000000000000000000000000000000DC0000000000000000000000002800280000282800000000000000000000000000DCDC00000000000000000000000000000000000000000000000000000000000000000000000000000000000000000000000000000000000000000000DCDC0000000000000000
310
00DCDCDCDCDCDCDCDCDCDCDCDCDCDCDCDCDCDCDCDCDCDCDCDCDCDCDCDCDC00000000000000000000000000000000000000000000000000000000000000000000000000000000000000000000000000000000000000000028282828282800000000000000000000000000000000000000000000000000000000000000002800
310
0000000000000000000000000000000000000000000000000000DC0000000000000000000000000000000000000000000000000000000000000000DCDC00000000000000000000000000000000000000000000000000000000000000000000000000000000000000000000000000000000000000000000DCDC000000000000
310
00000000000000000000000000000000000000000000000000000000000000000000000000000000000000000000000000000000000000000000000000000000000000000000000000000000000000000000000000000000000028282828282828282828282828282828282828282828282800000000000000000000000000
310
28000000000000000000000000000000000000000000000000000000DC0000000000000000000000000000000000000000000000000000000000000000DCDC00000000000000000000000000000000000000000000000000000000000000000000000000000000000000000000000000000000000000000000DCDC00000000
310
00000000000000000000000000000000000000000000000000000000000000000000000000000000000000000000000000000000000000000000000000000000000000000000000000000000000000000000000000000000000000002828282828282828282828282828282828282828282828280000000000000000000000
310
002800000000000000000000000000000000000000000000000000000000DC0000000000000000000000000000000000000000000000000000000000000000DCDC00000000000000000000000000000000000000000000000000000000000000000000000000000000000000000000000000000000000000000000DCDC0000
310
00000000000000000000000000000000000000000000000000000000000000000000000000000000000000000000000000000000000000000000000000000000000000000000000000000000000000000000000000000000000000000028282828280000000000000000000000000000000000000000000000000000000000
310
00000028000000000000DCDCDCDCDCDCDCDCDC00000000000000000000000000DC0000000000000000000000000000000000000000000000000000000000000000DCDC00000000000000000000000000000000000000000000000000000000000000000000000000000000000000000000000000000000000000000000DCDC
310
00000000000000000000000000000000000000000000000000000000000000000000000000000000000000000000000000000000000000000000000000000000000000000000000000000000000000000000000000000000000000000000002828282828000000000000000000000000000000000000000000000000000000
310
000000002800000000000000DCDCDCDCDCDCDCDCDC000000000000000000000000DC000000000000000000000000000000000000000000000000000000000000000000DCDC00000000000000000000000000000000000000000000000000000000000000000000000000000000000000000000000000000000000000000000
310
DCDC0000000000000000000000000000000000000000000000000000000000000000000000000000000000000000000000000000000000000000000000000000000000000000000000000000000000000000000000000000000000000000000000000000000000000000000000000000000000000000000000000000000000
310
0000000000002800000000000000DCDCDCDCDCDCDCDCDCDCDCDCDCDCDCDCDCDCDCDC00DC000000000000000000000000000000000000000000000000000000000000000000DCDC0000000000000000000000000000000000000000000000000000000000000000000000000000000000000000000000000000000000000000
310
0000DCDC000000000000000000000000000000000000000000000000000000000000000000000000000000000000000000000000000000000000000000000000000000000000000000000000000000000000000000000000000000000000000000000028282828282828282828282828282828282828282828282828282828
310
28282800000000280000000000000000DCDCDCDCDCDCDCDCDCDCDCDCDCDCDCDCDCDCDC00DCDC000000000000000000000000000000000000000000000000000000000000000000DCDC000000000000000000000000000000000000000000000000000000000000000000000000000000000000000000000000000000000000
310
00000000DCDC00000000000000000000000000000000000000000000000000000000000000000000000000000000000000000000000000000000000000000000000000000000000000000000000000000000000000000000000000000000000000000000002828282828282828282828282828282828282828282828282828
310
28282828000000000028000000000000000000000000000000000000000000000000000000000000000000000000000000000000000000000000000000000000000000000000000000DCDC00000000000000000000000000000000000000000000000000000000000000000000000000000000000000000000000000000000
310
000000000000DCDC0000000000000000000000000000000000000000000000000000000000000000000000000000000000000000000000000000000000000000000000000000000000000000000000000000000000000000000000000000000000000000000000000000000000000000000000000000000000000000000000
310
000000000000000000002800000000000000000000000000000000000000000000000000000000000000000000000000000000000000000000000000000000000000000000000000000000DCDC0000000000000000000000000000000000000000000000000000000000000000000000000000000000000000000000000000
310
0000000000F50000DCDC0000DCDCDCDCDCDCDCDCDCDCDCDCDCDCDCDCDCDCDCDCDCDCDCDCDCDCDCDCDCDCDCDCDCDCDCDCDCDCDCDCDCDCDCDC0000000000000000000000000000000000000000000000000000000000000000000000000000000000000000000000000000000000282828282828282828282828282828282828
310
2828282828282828000000002800000000000000000000000000000000000000000000000000000000000000000000000000000000000000000000000000000000000000000000000000000000DCDC0000F5000000000000000000000000000000000000000000000000000000000000000000000000000000000000000000
310
00000000000000F50000DCDC0000DCDCDCDCDCDCDCDCDCDCDCDCDCDCDCDCDCDCDCDCDCDCDCDCDCDCDCDCDCDCDCDCDCDCDCDCDCDCDCDCDCDCDC00000000000000000000000000000000000000000000000000000000000000000000000000000000000000000000000000000000000028282828282828282828282828282828
310
28282828282828282828002828280000000000000000000000000000000000000000000000000000000000000000000000000000000000000000000000000000000000000000000000000000000000DCDC0000F500000000000000000000000000000000000000000000000000000000000000000000000000000000000000
310
000000000000000000F50000DCDC0000DCDCDCDCDCDCDCDCDCDCDCDCDCDCDCDCDCDCDCDCDCDCDCDCDCDCDCDCDCDCDCDCDCDCDCDCDCDCDCDCDCDCDC0000000000000000000000000000000000000000000000000000000000000000000000000000000000000000000000000000000000000000000000000000000000000000
310
000000000000000000000000000000000000000000000000000000000000000000000000000000000000000000000000000000000000000000000000000000000000000000000000000000000000000000DCDC0000F50000000000000000000000000000000000000000000000000000000000000000000000000000000000
310
0000000000000000000000F50000DCDC0000DCDCDCDCDCDCDCDCDCDCDCDCDCDCDCDCDCDCDCDCDCDCDCDCDCDCDCDCDCDCDCDCDCDCDCDCDCDCDCDCDCDCDC000000000000000000000000000000000000000000000000000000000000000000000000000000000000000000000000000000000000000000000000000000000000
310
0000000000000000000000000000000000000000000000000000000000000000000000000000000000000000000000000000000000000000000000000000000000000000000000000000000000000000000000DCDC0000F5000000000000000000000000000000000000000000000000000000000000000000000000000000
310
00000000000000000000000000F50000DCDC00000000000000000000000000000000000000000000000000000000000000000000000000000000000000000000000000000000000000000000000000000000000000000000000000000000000000000000000000000000000000000000000000000000000000000000000000
310
00000000000000000000000000000000000000000000000000000000000000000000000000000000000000000000000000000000000000000000000000000000000000000000000000000000000000000000000000DCDC0000F500000000000000000000000000000000000000000000000000000000000000000000000000
310
000000000000000000000000000000F50000DCDC0000000000000000000000000000000000000000000000000000000000000000000000000000000000000000000000000000000000000000000000000000000000000000000000000000000000000000000000000000000000000000000000000000000000000000000000
310
000000000000000000000000000000000000000000000000000000000000000000000000000000000000000000000000000000000000000000000000000000000000000000000000000000000000000000000000000000DCDC0000F50000000000000000000000000000000000000000000000000000000000000000000000
310
0000000000000000000000000000000000F50000DCDCDCDCDCDCDCDCDCDCDCDCDCDCDCDCDCDCDCDCDCDCDCDCDCDCDCDCDCDCDCDCDCDCDCDCDCDCDCDCDCDCDCDCDCDCDCDCDCDCDCDCDCDCDCDCDCDCDCDCDCDCDCDCDCDCDCDCDCDCDCDCDCDCDCDCDCDCDCDCDCDCDCDCDCDCDCDCDCDCDCDCDCDCDCDCDCDCDCDCDCDCDCDCDCDCDC
310
DCDCDCDCDCDCDCDCDCDCDCDCDCDCDCDCDCDCDCDCDCDCDCDCDCDCDCDCDCDCDCDCDCDCDCDCDCDCDCDCDCDCDCDCDCDCDCDCDCDCDCDCDCDCDCDCDCDCDCDCDCDCDCDCDCDCDCDCDCDCDCDCDCDCDCDCDCDCDCDCDCDCDCDCDCDCDCDCDCDCDC0000F5000000000000000000000000000000000000000000000000000000000000000000
310
00000000000000000000000000000000000000F50000000000000000000000000000000000000000000000000000000000000000000000000000000000000000000000000000000000000000000000000000000000000000000000000000000000000000000000000000000000000000000000000000000000000000000000
310
0000000000000000000000000000000000000000000000000000000000000000000000000000000000000000000000000000000000000000000000000000000000000000000000000000000000000000000000000000000000000000000000F500000000000000000000000000000000000000000000000000000000000000
310
000000000000000000000000000000000000000000F5000000000000000000000000000000000000000000000000000000000000000000000000000000000000000000000000000000000000000000000000000000000000000000000000000000000000000000000000000000000000000000000000000000000000000000
310
00000000000000000000000000000000000000000000000000000000000000000000000000000000000000000000000000000000000000000000000000000000000000000000000000000000000000000000000000000000000000000000000000F50000000000000000000000000000000000000000000000000000000000
310
0000000000000000000000000000F5F5F5F5F5F5F5F5F5F5F5F5F5F5F500F5F5F500000000000000000000000000000000000000000000000000000000000000000000000000000000000000000000000000000000000000000000000000000000000000000000000000000000000000000000000000000000000000000000
310
0000000000000000000000000000000000000000000000000000000000000000000000000000000000000000000000000000000000000000000000000000000000000000000000000000000000000000000000000000000000F5F5F5F500F5F5F5F5F5F5F5F5F5F5F5F5F5F5F5000000000000000000000000000000000000
310
00000000000000000000000000000000000000000000000000F50000000000000000000000000000000000000000000000000000000000000000000000000000000000000000000000000000000000000000000000000000000000000000000000000000000000000000000000000000000000000000000000000000000000
310
0000000000000000000000000000000000000000000000000000000000000000000000000000000000000000000000000000000000000000000000000000000000000000000000000000000000000000000000000000000000000000000000000000000000F500000000000000000000000000000000000000000000000000
310
000000000000000000000000000000000000000000000000000000F5000000000000000000000000000000000000000000000000000000000000000000000000000000000000000000000000000000000000000000000000000000000000000000000000000000000000000000000000000000000000000000000000000000
310
00000000000000000000000000000000000000000000000000000000000000000000000000000000000000000000000000000000000000000000000000000000000000000000000000000000000000000000000000000000000000000000000000000000000000F50000000000000000000000000000000000000000000000
310
0000000000000000000000000000000000000000000000000000000000F500000000000000000000000000000000000000000000000000000000000000000000000000000000000000000000000000000000000000000000000000000000000000000000000000000000000000000000000000000000000000000000000000
310
000000000000000000000000000000000000000000000000000000000000000000000000000000000000000000000000000000000000000000000000000000000000000000000000000000000000000000000000000000000000000000000000000000000000000000F5000000000000000000000000000000000000000000
310
00000000000000000000000000000000000000000000000000000000000000F50000000000000000000000000000000000000000000000000000000000000000000000000000000000000000000000000000000000000000000000000000000000000000000000000000000000000000000000000000000000000000000000
310
0000000000000000000000000000000000000000000000000000000000000000000000000000000000000000000000000000000000000000000000000000000000000000000000000000000000000000000000000000000000000000000000000000000000000000000000F500000000000000000000000000000000000000
310
000000000000000000000000000000000000000000000000000000000000000000F5000000000000000000000000000000000000000000000000000000000000000000000000000000000000000000000000000000000000000000000000000000000000000000000000000000000000000000000000000000000000000000
310
00000000000000000000000000000000000000000000000000000000000000000000000000000000000000000000000000000000000000000000000000000000000000000000000000000000000000000000000000000000000000000000000000000000000000000000000000F50000000000000000000000000000000000
310
00000000000000000000000000000000000000000000000000000000000000000000000000000000000000000000000000000000000000000000000000000000000000000000000000000000000000000000000000000000000000000000000000000000000000000000000000000000000000000000000000000000000000
310
00000000000000000000000000000000000000000000000000000000000000000000000000000000000000000000000000000000000000000000000000000000000000000000000000000000000000000000000000000000000000000000000000000000000000000000000000000000000000000000000000000000000000
310
00000000000000000000000000000000000000000000000000000000000000000000000000F50000000000000000000000000000000000000000000000000000000000000000000000000000000000000000000000000000000000000000000000000000000000000000000000000000000000000000000000000000000000
310
0000000000000000000000000000000000000000000000000000000000000000000000000000000000000000000000000000000000000000000000000000000000000000000000000000000000000000000000000000000000000000000000000000000000000000000000000000000000F500000000000000000000000000
310
000000000000000000000000000000000000000000000000000000000000000000000000000000F5000000000000000000000000000000000000000000000000000000000000000000000000000000000000000000000000000000000000000000000000000000000000000000000000000000000000000000000000000000
310
00000000000000000000000000000000000000000000000000000000000000000000000000000000000000000000000000000000000000000000000000000000000000000000000000000000000000000000000000000000000000000000000000000000000000000000000000000000000000F50000000000000000000000
310
0000000000000000000000000000000000000000000000000000000000000000000000000000000000F500000000000000000000000000000000000000000000000000000000000000000000000000000000000000000000000000000000000000000000000000000000000000000000000000000000000000000000000000
310
000000000000000000000000000000000000000000000000000000000000000000000000000000000000000000000000000000000000000000000000000000000000000000000000000000000000000000000000000000000000000000000000000000000000000000000000000000000000000000F5000000000000000000
310
00000000000000000000000000000000000000000000000000000000000000000000000000000000000000000000000000000000000000000000000000000000000000000000000000000000000000000000000000000000000000000000000000000000000000000000000000000000000000000000000000000000000000
310
00000000000000000000000000000000000000000000000000000000000000000000000000000000000000000000000000000000000000000000000000000000000000000000000000000000000000000000000000000000000000000000000000000000000000000000000000000000000000000000000000000000000000
310
00000000000000000000000000000000000000
  0
XRECORD
  5
648
102
{ACAD_REACTORS
330
646
102
}
330
646
100
AcDbXrecord
280
     1
270
     1
271
     1
  0
XRECORD
  5
647
102
{ACAD_REACTORS
330
646
102
}
330
646
100
AcDbXrecord
280
     1
270
     1
271
     1
  0
XRECORD
  5
64B
102
{ACAD_REACTORS
330
646
102
}
330
646
100
AcDbXrecord
280
     1
270
     1
271
     1
  0
XRECORD
  5
64A
102
{ACAD_REACTORS
330
646
102
}
330
646
100
AcDbXrecord
280
     1
270
     1
271
     1
  0
XRECORD
  5
64C
102
{ACAD_REACTORS
330
646
102
}
330
646
100
AcDbXrecord
280
     1
270
     1
271
     1
  0
XRECORD
  5
649
102
{ACAD_REACTORS
330
646
102
}
330
646
100
AcDbXrecord
280
     1
270
     1
271
     1
  0
XRECORD
  5
640
102
{ACAD_REACTORS
330
63E
102
}
330
63E
100
AcDbXrecord
280
     1
270
     1
271
     1
  0
XRECORD
  5
63F
102
{ACAD_REACTORS
330
63E
102
}
330
63E
100
AcDbXrecord
280
     1
270
     1
271
     1
  0
XRECORD
  5
643
102
{ACAD_REACTORS
330
63E
102
}
330
63E
100
AcDbXrecord
280
     1
270
     1
271
     1
  0
XRECORD
  5
642
102
{ACAD_REACTORS
330
63E
102
}
330
63E
100
AcDbXrecord
280
     1
270
     1
271
     1
  0
XRECORD
  5
644
102
{ACAD_REACTORS
330
63E
102
}
330
63E
100
AcDbXrecord
280
     1
270
     1
271
     1
  0
XRECORD
  5
641
102
{ACAD_REACTORS
330
63E
102
}
330
63E
100
AcDbXrecord
280
     1
270
     1
271
     1
  0
XRECORD
  5
650
102
{ACAD_REACTORS
330
64E
102
}
330
64E
100
AcDbXrecord
280
     1
270
     1
271
     1
  0
XRECORD
  5
64F
102
{ACAD_REACTORS
330
64E
102
}
330
64E
100
AcDbXrecord
280
     1
270
     1
271
     1
  0
XRECORD
  5
653
102
{ACAD_REACTORS
330
64E
102
}
330
64E
100
AcDbXrecord
280
     1
270
     1
271
     1
  0
XRECORD
  5
652
102
{ACAD_REACTORS
330
64E
102
}
330
64E
100
AcDbXrecord
280
     1
270
     1
271
     1
  0
XRECORD
  5
654
102
{ACAD_REACTORS
330
64E
102
}
330
64E
100
AcDbXrecord
280
     1
270
     1
271
     1
  0
XRECORD
  5
651
102
{ACAD_REACTORS
330
64E
102
}
330
64E
100
AcDbXrecord
280
     1
270
     1
271
     1
  0
CELLSTYLEMAP
  5
6F7
102
{ACAD_REACTORS
330
6F6
102
}
330
6F6
100
AcDbCellStyleMap
 90
        3
300
CELLSTYLE
  1
TABLEFORMAT_BEGIN
 90
        5
170
     1
 91
        0
 92
    32768
 62
   257
 93
        1
300
CONTENTFORMAT
  1
CONTENTFORMAT_BEGIN
 90
        0
 91
        0
 92
      512
 93
        0
300

 40
0.0
140
1.0
 94
        5
 62
     0
340
F
144
0.25
309
CONTENTFORMAT_END
171
     0
 94
        0
309
TABLEFORMAT_END
  1
CELLSTYLE_BEGIN
 90
        1
 91
        1
300
_TITLE
309
CELLSTYLE_END
300
CELLSTYLE
  1
TABLEFORMAT_BEGIN
 90
        5
170
     1
 91
        0
 92
        0
 62
   257
 93
        1
300
CONTENTFORMAT
  1
CONTENTFORMAT_BEGIN
 90
        0
 91
        0
 92
      512
 93
        0
300

 40
0.0
140
1.0
 94
        5
 62
     0
340
F
144
0.18
309
CONTENTFORMAT_END
171
     0
 94
        0
309
TABLEFORMAT_END
  1
CELLSTYLE_BEGIN
 90
        2
 91
        1
300
_HEADER
309
CELLSTYLE_END
300
CELLSTYLE
  1
TABLEFORMAT_BEGIN
 90
        5
170
     1
 91
        0
 92
        0
 62
   257
 93
        1
300
CONTENTFORMAT
  1
CONTENTFORMAT_BEGIN
 90
        0
 91
        0
 92
      512
 93
        0
300

 40
0.0
140
1.0
 94
        2
 62
     0
340
F
144
0.18
309
CONTENTFORMAT_END
171
     0
 94
        0
309
TABLEFORMAT_END
  1
CELLSTYLE_BEGIN
 90
        3
 91
        2
300
_DATA
309
CELLSTYLE_END
  0
XRECORD
  5
704
102
{ACAD_REACTORS
330
703
102
}
330
703
100
AcDbXrecord
280
     1
102
RTVSPropertyOp0
 70
     1
102
RTVSPropertyOp1
 70
     1
102
RTVSPropertyOp2
 70
     1
102
RTVSPropertyOp3
 70
     1
102
RTVSPropertyOp4
 70
     1
102
RTVSPropertyOp5
 70
     1
102
RTVSPropertyOp6
 70
     1
102
RTVSPropertyOp7
 70
     1
102
RTVSPropertyOp8
 70
     1
102
RTVSPropertyOp9
 70
     1
102
RTVSPropertyOp10
 70
     1
102
RTVSPropertyOp11
 70
     1
102
RTVSPropertyOp12
 70
     1
102
RTVSPropertyOp13
 70
     1
102
RTVSPropertyOp14
 70
     1
102
RTVSPropertyOp15
 70
     1
102
RTVSPropertyOp16
 70
     1
102
RTVSPropertyOp17
 70
     1
102
RTVSPropertyOp18
 70
     1
102
RTVSPropertyOp19
 70
     1
102
RTVSPropertyOp20
 70
     1
102
RTVSPropertyOp21
 70
     1
102
RTVSPropertyOp22
 70
     1
102
RTVSPropertyOp23
 70
     1
102
RTVSPropertyOp24
 70
     1
102
RTVSPropertyOp25
 70
     1
102
RTVSPropertyOp26
 70
     1
102
RTVSPropertyOp27
 70
     1
102
RTVSPropertyOp28
 70
     1
102
RTVSPropertyOp29
 70
     1
102
RTVSPropertyOp30
 70
     1
102
RTVSPropertyOp31
 70
     1
102
RTVSPropertyOp32
 70
     1
  0
XRECORD
  5
702
102
{ACAD_REACTORS
330
701
102
}
330
701
100
AcDbXrecord
280
     1
102
RTVSPropertyOp0
 70
     1
102
RTVSPropertyOp1
 70
     1
102
RTVSPropertyOp2
 70
     1
102
RTVSPropertyOp3
 70
     1
102
RTVSPropertyOp4
 70
     1
102
RTVSPropertyOp5
 70
     1
102
RTVSPropertyOp6
 70
     1
102
RTVSPropertyOp7
 70
     1
102
RTVSPropertyOp8
 70
     1
102
RTVSPropertyOp9
 70
     1
102
RTVSPropertyOp10
 70
     1
102
RTVSPropertyOp11
 70
     1
102
RTVSPropertyOp12
 70
     1
102
RTVSPropertyOp13
 70
     1
102
RTVSPropertyOp14
 70
     1
102
RTVSPropertyOp15
 70
     1
102
RTVSPropertyOp16
 70
     1
102
RTVSPropertyOp17
 70
     1
102
RTVSPropertyOp18
 70
     1
102
RTVSPropertyOp19
 70
     1
102
RTVSPropertyOp20
 70
     1
102
RTVSPropertyOp21
 70
     1
102
RTVSPropertyOp22
 70
     1
102
RTVSPropertyOp23
 70
     1
102
RTVSPropertyOp24
 70
     1
102
RTVSPropertyOp25
 70
     1
102
RTVSPropertyOp26
 70
     1
102
RTVSPropertyOp27
 70
     1
102
RTVSPropertyOp28
 70
     1
102
RTVSPropertyOp29
 70
     1
102
RTVSPropertyOp30
 70
     1
102
RTVSPropertyOp31
 70
     1
102
RTVSPropertyOp32
 70
     1
  0
XRECORD
  5
710
102
{ACAD_REACTORS
330
70F
102
}
330
70F
100
AcDbXrecord
280
     1
102
RTVSPropertyOp0
 70
     1
102
RTVSPropertyOp1
 70
     1
102
RTVSPropertyOp2
 70
     1
102
RTVSPropertyOp3
 70
     1
102
RTVSPropertyOp4
 70
     1
102
RTVSPropertyOp5
 70
     1
102
RTVSPropertyOp6
 70
     1
102
RTVSPropertyOp7
 70
     1
102
RTVSPropertyOp8
 70
     1
102
RTVSPropertyOp9
 70
     1
102
RTVSPropertyOp10
 70
     1
102
RTVSPropertyOp11
 70
     1
102
RTVSPropertyOp12
 70
     1
102
RTVSPropertyOp13
 70
     1
102
RTVSPropertyOp14
 70
     1
102
RTVSPropertyOp15
 70
     1
102
RTVSPropertyOp16
 70
     1
102
RTVSPropertyOp17
 70
     1
102
RTVSPropertyOp18
 70
     1
102
RTVSPropertyOp19
 70
     1
102
RTVSPropertyOp20
 70
     1
102
RTVSPropertyOp21
 70
     1
102
RTVSPropertyOp22
 70
     1
102
RTVSPropertyOp23
 70
     1
102
RTVSPropertyOp24
 70
     1
102
RTVSPropertyOp25
 70
     1
102
RTVSPropertyOp26
 70
     1
102
RTVSPropertyOp27
 70
     1
102
RTVSPropertyOp28
 70
     1
102
RTVSPropertyOp29
 70
     1
102
RTVSPropertyOp30
 70
     1
102
RTVSPropertyOp31
 70
     1
102
RTVSPropertyOp32
 70
     1
  0
XRECORD
  5
718
102
{ACAD_REACTORS
330
717
102
}
330
717
100
AcDbXrecord
280
     1
102
RTVSPropertyOp0
 70
     1
102
RTVSPropertyOp1
 70
     1
102
RTVSPropertyOp2
 70
     1
102
RTVSPropertyOp3
 70
     1
102
RTVSPropertyOp4
 70
     1
102
RTVSPropertyOp5
 70
     1
102
RTVSPropertyOp6
 70
     1
102
RTVSPropertyOp7
 70
     1
102
RTVSPropertyOp8
 70
     1
102
RTVSPropertyOp9
 70
     1
102
RTVSPropertyOp10
 70
     1
102
RTVSPropertyOp11
 70
     1
102
RTVSPropertyOp12
 70
     1
102
RTVSPropertyOp13
 70
     1
102
RTVSPropertyOp14
 70
     1
102
RTVSPropertyOp15
 70
     1
102
RTVSPropertyOp16
 70
     1
102
RTVSPropertyOp17
 70
     1
102
RTVSPropertyOp18
 70
     1
102
RTVSPropertyOp19
 70
     1
102
RTVSPropertyOp20
 70
     1
102
RTVSPropertyOp21
 70
     1
102
RTVSPropertyOp22
 70
     1
102
RTVSPropertyOp23
 70
     1
102
RTVSPropertyOp24
 70
     1
102
RTVSPropertyOp25
 70
     1
102
RTVSPropertyOp26
 70
     1
102
RTVSPropertyOp27
 70
     1
102
RTVSPropertyOp28
 70
     1
102
RTVSPropertyOp29
 70
     1
102
RTVSPropertyOp30
 70
     1
102
RTVSPropertyOp31
 70
     1
102
RTVSPropertyOp32
 70
     1
  0
XRECORD
  5
70A
102
{ACAD_REACTORS
330
709
102
}
330
709
100
AcDbXrecord
280
     1
102
RTVSPropertyOp0
 70
     1
102
RTVSPropertyOp1
 70
     1
102
RTVSPropertyOp2
 70
     1
102
RTVSPropertyOp3
 70
     1
102
RTVSPropertyOp4
 70
     1
102
RTVSPropertyOp5
 70
     1
102
RTVSPropertyOp6
 70
     1
102
RTVSPropertyOp7
 70
     1
102
RTVSPropertyOp8
 70
     1
102
RTVSPropertyOp9
 70
     1
102
RTVSPropertyOp10
 70
     1
102
RTVSPropertyOp11
 70
     1
102
RTVSPropertyOp12
 70
     1
102
RTVSPropertyOp13
 70
     1
102
RTVSPropertyOp14
 70
     1
102
RTVSPropertyOp15
 70
     1
102
RTVSPropertyOp16
 70
     1
102
RTVSPropertyOp17
 70
     1
102
RTVSPropertyOp18
 70
     1
102
RTVSPropertyOp19
 70
     1
102
RTVSPropertyOp20
 70
     1
102
RTVSPropertyOp21
 70
     1
102
RTVSPropertyOp22
 70
     1
102
RTVSPropertyOp23
 70
     1
102
RTVSPropertyOp24
 70
     1
102
RTVSPropertyOp25
 70
     1
102
RTVSPropertyOp26
 70
     1
102
RTVSPropertyOp27
 70
     1
102
RTVSPropertyOp28
 70
     1
102
RTVSPropertyOp29
 70
     1
102
RTVSPropertyOp30
 70
     1
102
RTVSPropertyOp31
 70
     1
102
RTVSPropertyOp32
 70
     1
  0
XRECORD
  5
70E
102
{ACAD_REACTORS
330
70D
102
}
330
70D
100
AcDbXrecord
280
     1
102
RTVSPropertyOp0
 70
     1
102
RTVSPropertyOp1
 70
     1
102
RTVSPropertyOp2
 70
     1
102
RTVSPropertyOp3
 70
     1
102
RTVSPropertyOp4
 70
     1
102
RTVSPropertyOp5
 70
     1
102
RTVSPropertyOp6
 70
     1
102
RTVSPropertyOp7
 70
     1
102
RTVSPropertyOp8
 70
     1
102
RTVSPropertyOp9
 70
     1
102
RTVSPropertyOp10
 70
     1
102
RTVSPropertyOp11
 70
     1
102
RTVSPropertyOp12
 70
     1
102
RTVSPropertyOp13
 70
     1
102
RTVSPropertyOp14
 70
     1
102
RTVSPropertyOp15
 70
     1
102
RTVSPropertyOp16
 70
     1
102
RTVSPropertyOp17
 70
     1
102
RTVSPropertyOp18
 70
     1
102
RTVSPropertyOp19
 70
     1
102
RTVSPropertyOp20
 70
     1
102
RTVSPropertyOp21
 70
     1
102
RTVSPropertyOp22
 70
     1
102
RTVSPropertyOp23
 70
     1
102
RTVSPropertyOp24
 70
     1
102
RTVSPropertyOp25
 70
     1
102
RTVSPropertyOp26
 70
     1
102
RTVSPropertyOp27
 70
     1
102
RTVSPropertyOp28
 70
     1
102
RTVSPropertyOp29
 70
     1
102
RTVSPropertyOp30
 70
     1
102
RTVSPropertyOp31
 70
     1
102
RTVSPropertyOp32
 70
     1
  0
XRECORD
  5
728
102
{ACAD_REACTORS
330
727
102
}
330
727
100
AcDbXrecord
280
     1
102
RTVSPropertyOp0
 70
     0
102
RTVSPropertyOp1
 70
     0
102
RTVSPropertyOp2
 70
     0
102
RTVSPropertyOp3
 70
     0
102
RTVSPropertyOp4
 70
     0
102
RTVSPropertyOp5
 70
     0
102
RTVSPropertyOp6
 70
     0
102
RTVSPropertyOp7
 70
     0
102
RTVSPropertyOp8
 70
     0
102
RTVSPropertyOp9
 70
     0
102
RTVSPropertyOp10
 70
     0
102
RTVSPropertyOp11
 70
     0
102
RTVSPropertyOp12
 70
     0
102
RTVSPropertyOp13
 70
     0
102
RTVSPropertyOp14
 70
     2
102
RTVSPropertyOp15
 70
     0
102
RTVSPropertyOp16
 70
     0
102
RTVSPropertyOp17
 70
     0
102
RTVSPropertyOp18
 70
     0
102
RTVSPropertyOp19
 70
     0
102
RTVSPropertyOp20
 70
     0
102
RTVSPropertyOp21
 70
     0
102
RTVSPropertyOp22
 70
     0
102
RTVSPropertyOp23
 70
     0
102
RTVSPropertyOp24
 70
     0
102
RTVSPropertyOp25
 70
     0
102
RTVSPropertyOp26
 70
     0
102
RTVSPropertyOp27
 70
     0
102
RTVSPropertyOp28
 70
     0
102
RTVSPropertyOp29
 70
     0
102
RTVSPropertyOp30
 70
     0
102
RTVSPropertyOp31
 70
     0
102
RTVSPropertyOp32
 70
     0
  0
XRECORD
  5
716
102
{ACAD_REACTORS
330
715
102
}
330
715
100
AcDbXrecord
280
     1
102
RTVSPropertyOp0
 70
     1
102
RTVSPropertyOp1
 70
     1
102
RTVSPropertyOp2
 70
     1
102
RTVSPropertyOp3
 70
     1
102
RTVSPropertyOp4
 70
     1
102
RTVSPropertyOp5
 70
     1
102
RTVSPropertyOp6
 70
     1
102
RTVSPropertyOp7
 70
     1
102
RTVSPropertyOp8
 70
     1
102
RTVSPropertyOp9
 70
     1
102
RTVSPropertyOp10
 70
     1
102
RTVSPropertyOp11
 70
     1
102
RTVSPropertyOp12
 70
     1
102
RTVSPropertyOp13
 70
     1
102
RTVSPropertyOp14
 70
     1
102
RTVSPropertyOp15
 70
     1
102
RTVSPropertyOp16
 70
     1
102
RTVSPropertyOp17
 70
     1
102
RTVSPropertyOp18
 70
     1
102
RTVSPropertyOp19
 70
     1
102
RTVSPropertyOp20
 70
     1
102
RTVSPropertyOp21
 70
     1
102
RTVSPropertyOp22
 70
     1
102
RTVSPropertyOp23
 70
     1
102
RTVSPropertyOp24
 70
     1
102
RTVSPropertyOp25
 70
     1
102
RTVSPropertyOp26
 70
     1
102
RTVSPropertyOp27
 70
     1
102
RTVSPropertyOp28
 70
     1
102
RTVSPropertyOp29
 70
     1
102
RTVSPropertyOp30
 70
     1
102
RTVSPropertyOp31
 70
     1
102
RTVSPropertyOp32
 70
     1
  0
XRECORD
  5
6FA
102
{ACAD_REACTORS
330
6F9
102
}
330
6F9
100
AcDbXrecord
280
     1
102
RTVSPropertyOp0
 70
     1
102
RTVSPropertyOp1
 70
     1
102
RTVSPropertyOp2
 70
     1
102
RTVSPropertyOp3
 70
     1
102
RTVSPropertyOp4
 70
     1
102
RTVSPropertyOp5
 70
     1
102
RTVSPropertyOp6
 70
     1
102
RTVSPropertyOp7
 70
     1
102
RTVSPropertyOp8
 70
     1
102
RTVSPropertyOp9
 70
     1
102
RTVSPropertyOp10
 70
     1
102
RTVSPropertyOp11
 70
     1
102
RTVSPropertyOp12
 70
     1
102
RTVSPropertyOp13
 70
     1
102
RTVSPropertyOp14
 70
     1
102
RTVSPropertyOp15
 70
     1
102
RTVSPropertyOp16
 70
     1
102
RTVSPropertyOp17
 70
     1
102
RTVSPropertyOp18
 70
     1
102
RTVSPropertyOp19
 70
     1
102
RTVSPropertyOp20
 70
     1
102
RTVSPropertyOp21
 70
     1
102
RTVSPropertyOp22
 70
     1
102
RTVSPropertyOp23
 70
     1
102
RTVSPropertyOp24
 70
     1
102
RTVSPropertyOp25
 70
     1
102
RTVSPropertyOp26
 70
     1
102
RTVSPropertyOp27
 70
     1
102
RTVSPropertyOp28
 70
     1
102
RTVSPropertyOp29
 70
     1
102
RTVSPropertyOp30
 70
     1
102
RTVSPropertyOp31
 70
     1
102
RTVSPropertyOp32
 70
     1
  0
XRECORD
  5
6FC
102
{ACAD_REACTORS
330
6FB
102
}
330
6FB
100
AcDbXrecord
280
     1
102
RTVSPropertyOp0
 70
     1
102
RTVSPropertyOp1
 70
     1
102
RTVSPropertyOp2
 70
     1
102
RTVSPropertyOp3
 70
     1
102
RTVSPropertyOp4
 70
     1
102
RTVSPropertyOp5
 70
     1
102
RTVSPropertyOp6
 70
     1
102
RTVSPropertyOp7
 70
     1
102
RTVSPropertyOp8
 70
     1
102
RTVSPropertyOp9
 70
     1
102
RTVSPropertyOp10
 70
     1
102
RTVSPropertyOp11
 70
     1
102
RTVSPropertyOp12
 70
     1
102
RTVSPropertyOp13
 70
     1
102
RTVSPropertyOp14
 70
     1
102
RTVSPropertyOp15
 70
     1
102
RTVSPropertyOp16
 70
     1
102
RTVSPropertyOp17
 70
     1
102
RTVSPropertyOp18
 70
     1
102
RTVSPropertyOp19
 70
     1
102
RTVSPropertyOp20
 70
     1
102
RTVSPropertyOp21
 70
     1
102
RTVSPropertyOp22
 70
     1
102
RTVSPropertyOp23
 70
     1
102
RTVSPropertyOp24
 70
     1
102
RTVSPropertyOp25
 70
     1
102
RTVSPropertyOp26
 70
     1
102
RTVSPropertyOp27
 70
     1
102
RTVSPropertyOp28
 70
     1
102
RTVSPropertyOp29
 70
     1
102
RTVSPropertyOp30
 70
     1
102
RTVSPropertyOp31
 70
     1
102
RTVSPropertyOp32
 70
     1
  0
XRECORD
  5
6FE
102
{ACAD_REACTORS
330
6FD
102
}
330
6FD
100
AcDbXrecord
280
     1
102
RTVSPropertyOp0
 70
     1
102
RTVSPropertyOp1
 70
     1
102
RTVSPropertyOp2
 70
     1
102
RTVSPropertyOp3
 70
     1
102
RTVSPropertyOp4
 70
     1
102
RTVSPropertyOp5
 70
     1
102
RTVSPropertyOp6
 70
     1
102
RTVSPropertyOp7
 70
     1
102
RTVSPropertyOp8
 70
     1
102
RTVSPropertyOp9
 70
     1
102
RTVSPropertyOp10
 70
     1
102
RTVSPropertyOp11
 70
     1
102
RTVSPropertyOp12
 70
     1
102
RTVSPropertyOp13
 70
     1
102
RTVSPropertyOp14
 70
     1
102
RTVSPropertyOp15
 70
     1
102
RTVSPropertyOp16
 70
     1
102
RTVSPropertyOp17
 70
     1
102
RTVSPropertyOp18
 70
     1
102
RTVSPropertyOp19
 70
     1
102
RTVSPropertyOp20
 70
     1
102
RTVSPropertyOp21
 70
     1
102
RTVSPropertyOp22
 70
     1
102
RTVSPropertyOp23
 70
     1
102
RTVSPropertyOp24
 70
     1
102
RTVSPropertyOp25
 70
     1
102
RTVSPropertyOp26
 70
     1
102
RTVSPropertyOp27
 70
     1
102
RTVSPropertyOp28
 70
     1
102
RTVSPropertyOp29
 70
     1
102
RTVSPropertyOp30
 70
     1
102
RTVSPropertyOp31
 70
     1
102
RTVSPropertyOp32
 70
     1
  0
XRECORD
  5
700
102
{ACAD_REACTORS
330
6FF
102
}
330
6FF
100
AcDbXrecord
280
     1
102
RTVSPropertyOp0
 70
     1
102
RTVSPropertyOp1
 70
     1
102
RTVSPropertyOp2
 70
     1
102
RTVSPropertyOp3
 70
     1
102
RTVSPropertyOp4
 70
     1
102
RTVSPropertyOp5
 70
     1
102
RTVSPropertyOp6
 70
     1
102
RTVSPropertyOp7
 70
     1
102
RTVSPropertyOp8
 70
     1
102
RTVSPropertyOp9
 70
     1
102
RTVSPropertyOp10
 70
     1
102
RTVSPropertyOp11
 70
     1
102
RTVSPropertyOp12
 70
     1
102
RTVSPropertyOp13
 70
     1
102
RTVSPropertyOp14
 70
     1
102
RTVSPropertyOp15
 70
     1
102
RTVSPropertyOp16
 70
     1
102
RTVSPropertyOp17
 70
     1
102
RTVSPropertyOp18
 70
     1
102
RTVSPropertyOp19
 70
     1
102
RTVSPropertyOp20
 70
     1
102
RTVSPropertyOp21
 70
     1
102
RTVSPropertyOp22
 70
     1
102
RTVSPropertyOp23
 70
     1
102
RTVSPropertyOp24
 70
     1
102
RTVSPropertyOp25
 70
     1
102
RTVSPropertyOp26
 70
     1
102
RTVSPropertyOp27
 70
     1
102
RTVSPropertyOp28
 70
     1
102
RTVSPropertyOp29
 70
     1
102
RTVSPropertyOp30
 70
     1
102
RTVSPropertyOp31
 70
     1
102
RTVSPropertyOp32
 70
     1
  0
XRECORD
  5
708
102
{ACAD_REACTORS
330
707
102
}
330
707
100
AcDbXrecord
280
     1
102
RTVSPropertyOp0
 70
     1
102
RTVSPropertyOp1
 70
     1
102
RTVSPropertyOp2
 70
     1
102
RTVSPropertyOp3
 70
     1
102
RTVSPropertyOp4
 70
     1
102
RTVSPropertyOp5
 70
     1
102
RTVSPropertyOp6
 70
     1
102
RTVSPropertyOp7
 70
     1
102
RTVSPropertyOp8
 70
     1
102
RTVSPropertyOp9
 70
     1
102
RTVSPropertyOp10
 70
     1
102
RTVSPropertyOp11
 70
     1
102
RTVSPropertyOp12
 70
     1
102
RTVSPropertyOp13
 70
     1
102
RTVSPropertyOp14
 70
     1
102
RTVSPropertyOp15
 70
     1
102
RTVSPropertyOp16
 70
     1
102
RTVSPropertyOp17
 70
     1
102
RTVSPropertyOp18
 70
     1
102
RTVSPropertyOp19
 70
     1
102
RTVSPropertyOp20
 70
     1
102
RTVSPropertyOp21
 70
     1
102
RTVSPropertyOp22
 70
     1
102
RTVSPropertyOp23
 70
     1
102
RTVSPropertyOp24
 70
     1
102
RTVSPropertyOp25
 70
     1
102
RTVSPropertyOp26
 70
     1
102
RTVSPropertyOp27
 70
     1
102
RTVSPropertyOp28
 70
     1
102
RTVSPropertyOp29
 70
     1
102
RTVSPropertyOp30
 70
     1
102
RTVSPropertyOp31
 70
     1
102
RTVSPropertyOp32
 70
     1
  0
XRECORD
  5
724
102
{ACAD_REACTORS
330
723
102
}
330
723
100
AcDbXrecord
280
     1
102
RTVSPropertyOp0
 70
     0
102
RTVSPropertyOp1
 70
     0
102
RTVSPropertyOp2
 70
     0
102
RTVSPropertyOp3
 70
     0
102
RTVSPropertyOp4
 70
     0
102
RTVSPropertyOp5
 70
     0
102
RTVSPropertyOp6
 70
     0
102
RTVSPropertyOp7
 70
     0
102
RTVSPropertyOp8
 70
     0
102
RTVSPropertyOp9
 70
     0
102
RTVSPropertyOp10
 70
     0
102
RTVSPropertyOp11
 70
     0
102
RTVSPropertyOp12
 70
     0
102
RTVSPropertyOp13
 70
     0
102
RTVSPropertyOp14
 70
     2
102
RTVSPropertyOp15
 70
     0
102
RTVSPropertyOp16
 70
     0
102
RTVSPropertyOp17
 70
     0
102
RTVSPropertyOp18
 70
     0
102
RTVSPropertyOp19
 70
     0
102
RTVSPropertyOp20
 70
     0
102
RTVSPropertyOp21
 70
     0
102
RTVSPropertyOp22
 70
     0
102
RTVSPropertyOp23
 70
     0
102
RTVSPropertyOp24
 70
     0
102
RTVSPropertyOp25
 70
     0
102
RTVSPropertyOp26
 70
     0
102
RTVSPropertyOp27
 70
     0
102
RTVSPropertyOp28
 70
     0
102
RTVSPropertyOp29
 70
     0
102
RTVSPropertyOp30
 70
     0
102
RTVSPropertyOp31
 70
     0
102
RTVSPropertyOp32
 70
     0
  0
XRECORD
  5
714
102
{ACAD_REACTORS
330
713
102
}
330
713
100
AcDbXrecord
280
     1
102
RTVSPropertyOp0
 70
     1
102
RTVSPropertyOp1
 70
     1
102
RTVSPropertyOp2
 70
     1
102
RTVSPropertyOp3
 70
     1
102
RTVSPropertyOp4
 70
     1
102
RTVSPropertyOp5
 70
     1
102
RTVSPropertyOp6
 70
     1
102
RTVSPropertyOp7
 70
     1
102
RTVSPropertyOp8
 70
     1
102
RTVSPropertyOp9
 70
     1
102
RTVSPropertyOp10
 70
     1
102
RTVSPropertyOp11
 70
     1
102
RTVSPropertyOp12
 70
     1
102
RTVSPropertyOp13
 70
     1
102
RTVSPropertyOp14
 70
     1
102
RTVSPropertyOp15
 70
     1
102
RTVSPropertyOp16
 70
     1
102
RTVSPropertyOp17
 70
     1
102
RTVSPropertyOp18
 70
     1
102
RTVSPropertyOp19
 70
     1
102
RTVSPropertyOp20
 70
     1
102
RTVSPropertyOp21
 70
     1
102
RTVSPropertyOp22
 70
     1
102
RTVSPropertyOp23
 70
     1
102
RTVSPropertyOp24
 70
     1
102
RTVSPropertyOp25
 70
     1
102
RTVSPropertyOp26
 70
     1
102
RTVSPropertyOp27
 70
     1
102
RTVSPropertyOp28
 70
     1
102
RTVSPropertyOp29
 70
     1
102
RTVSPropertyOp30
 70
     1
102
RTVSPropertyOp31
 70
     1
102
RTVSPropertyOp32
 70
     1
  0
XRECORD
  5
726
102
{ACAD_REACTORS
330
725
102
}
330
725
100
AcDbXrecord
280
     1
102
RTVSPropertyOp0
 70
     0
102
RTVSPropertyOp1
 70
     0
102
RTVSPropertyOp2
 70
     0
102
RTVSPropertyOp3
 70
     0
102
RTVSPropertyOp4
 70
     0
102
RTVSPropertyOp5
 70
     0
102
RTVSPropertyOp6
 70
     0
102
RTVSPropertyOp7
 70
     0
102
RTVSPropertyOp8
 70
     0
102
RTVSPropertyOp9
 70
     0
102
RTVSPropertyOp10
 70
     0
102
RTVSPropertyOp11
 70
     0
102
RTVSPropertyOp12
 70
     0
102
RTVSPropertyOp13
 70
     0
102
RTVSPropertyOp14
 70
     2
102
RTVSPropertyOp15
 70
     0
102
RTVSPropertyOp16
 70
     0
102
RTVSPropertyOp17
 70
     0
102
RTVSPropertyOp18
 70
     0
102
RTVSPropertyOp19
 70
     0
102
RTVSPropertyOp20
 70
     0
102
RTVSPropertyOp21
 70
     0
102
RTVSPropertyOp22
 70
     0
102
RTVSPropertyOp23
 70
     0
102
RTVSPropertyOp24
 70
     0
102
RTVSPropertyOp25
 70
     0
102
RTVSPropertyOp26
 70
     0
102
RTVSPropertyOp27
 70
     0
102
RTVSPropertyOp28
 70
     0
102
RTVSPropertyOp29
 70
     0
102
RTVSPropertyOp30
 70
     0
102
RTVSPropertyOp31
 70
     0
102
RTVSPropertyOp32
 70
     0
  0
XRECORD
  5
70C
102
{ACAD_REACTORS
330
70B
102
}
330
70B
100
AcDbXrecord
280
     1
102
RTVSPropertyOp0
 70
     1
102
RTVSPropertyOp1
 70
     1
102
RTVSPropertyOp2
 70
     1
102
RTVSPropertyOp3
 70
     1
102
RTVSPropertyOp4
 70
     1
102
RTVSPropertyOp5
 70
     1
102
RTVSPropertyOp6
 70
     1
102
RTVSPropertyOp7
 70
     1
102
RTVSPropertyOp8
 70
     1
102
RTVSPropertyOp9
 70
     1
102
RTVSPropertyOp10
 70
     1
102
RTVSPropertyOp11
 70
     1
102
RTVSPropertyOp12
 70
     1
102
RTVSPropertyOp13
 70
     1
102
RTVSPropertyOp14
 70
     1
102
RTVSPropertyOp15
 70
     1
102
RTVSPropertyOp16
 70
     1
102
RTVSPropertyOp17
 70
     1
102
RTVSPropertyOp18
 70
     1
102
RTVSPropertyOp19
 70
     1
102
RTVSPropertyOp20
 70
     1
102
RTVSPropertyOp21
 70
     1
102
RTVSPropertyOp22
 70
     1
102
RTVSPropertyOp23
 70
     1
102
RTVSPropertyOp24
 70
     1
102
RTVSPropertyOp25
 70
     1
102
RTVSPropertyOp26
 70
     1
102
RTVSPropertyOp27
 70
     1
102
RTVSPropertyOp28
 70
     1
102
RTVSPropertyOp29
 70
     1
102
RTVSPropertyOp30
 70
     1
102
RTVSPropertyOp31
 70
     1
102
RTVSPropertyOp32
 70
     1
  0
XRECORD
  5
722
102
{ACAD_REACTORS
330
721
102
}
330
721
100
AcDbXrecord
280
     1
102
RTVSPropertyOp0
 70
     1
102
RTVSPropertyOp1
 70
     1
102
RTVSPropertyOp2
 70
     1
102
RTVSPropertyOp3
 70
     1
102
RTVSPropertyOp4
 70
     1
102
RTVSPropertyOp5
 70
     1
102
RTVSPropertyOp6
 70
     1
102
RTVSPropertyOp7
 70
     1
102
RTVSPropertyOp8
 70
     1
102
RTVSPropertyOp9
 70
     1
102
RTVSPropertyOp10
 70
     1
102
RTVSPropertyOp11
 70
     1
102
RTVSPropertyOp12
 70
     1
102
RTVSPropertyOp13
 70
     1
102
RTVSPropertyOp14
 70
     1
102
RTVSPropertyOp15
 70
     1
102
RTVSPropertyOp16
 70
     1
102
RTVSPropertyOp17
 70
     1
102
RTVSPropertyOp18
 70
     1
102
RTVSPropertyOp19
 70
     1
102
RTVSPropertyOp20
 70
     1
102
RTVSPropertyOp21
 70
     1
102
RTVSPropertyOp22
 70
     1
102
RTVSPropertyOp23
 70
     1
102
RTVSPropertyOp24
 70
     1
102
RTVSPropertyOp25
 70
     1
102
RTVSPropertyOp26
 70
     1
102
RTVSPropertyOp27
 70
     1
102
RTVSPropertyOp28
 70
     1
102
RTVSPropertyOp29
 70
     1
102
RTVSPropertyOp30
 70
     1
102
RTVSPropertyOp31
 70
     1
102
RTVSPropertyOp32
 70
     1
  0
XRECORD
  5
720
102
{ACAD_REACTORS
330
71F
102
}
330
71F
100
AcDbXrecord
280
     1
102
RTVSPropertyOp0
 70
     1
102
RTVSPropertyOp1
 70
     1
102
RTVSPropertyOp2
 70
     1
102
RTVSPropertyOp3
 70
     1
102
RTVSPropertyOp4
 70
     1
102
RTVSPropertyOp5
 70
     1
102
RTVSPropertyOp6
 70
     1
102
RTVSPropertyOp7
 70
     1
102
RTVSPropertyOp8
 70
     1
102
RTVSPropertyOp9
 70
     1
102
RTVSPropertyOp10
 70
     1
102
RTVSPropertyOp11
 70
     1
102
RTVSPropertyOp12
 70
     1
102
RTVSPropertyOp13
 70
     1
102
RTVSPropertyOp14
 70
     1
102
RTVSPropertyOp15
 70
     1
102
RTVSPropertyOp16
 70
     1
102
RTVSPropertyOp17
 70
     1
102
RTVSPropertyOp18
 70
     1
102
RTVSPropertyOp19
 70
     1
102
RTVSPropertyOp20
 70
     1
102
RTVSPropertyOp21
 70
     1
102
RTVSPropertyOp22
 70
     1
102
RTVSPropertyOp23
 70
     1
102
RTVSPropertyOp24
 70
     1
102
RTVSPropertyOp25
 70
     1
102
RTVSPropertyOp26
 70
     1
102
RTVSPropertyOp27
 70
     1
102
RTVSPropertyOp28
 70
     1
102
RTVSPropertyOp29
 70
     1
102
RTVSPropertyOp30
 70
     1
102
RTVSPropertyOp31
 70
     1
102
RTVSPropertyOp32
 70
     1
  0
XRECORD
  5
71A
102
{ACAD_REACTORS
330
719
102
}
330
719
100
AcDbXrecord
280
     1
102
RTVSPropertyOp0
 70
     1
102
RTVSPropertyOp1
 70
     1
102
RTVSPropertyOp2
 70
     1
102
RTVSPropertyOp3
 70
     1
102
RTVSPropertyOp4
 70
     1
102
RTVSPropertyOp5
 70
     1
102
RTVSPropertyOp6
 70
     1
102
RTVSPropertyOp7
 70
     1
102
RTVSPropertyOp8
 70
     1
102
RTVSPropertyOp9
 70
     1
102
RTVSPropertyOp10
 70
     1
102
RTVSPropertyOp11
 70
     1
102
RTVSPropertyOp12
 70
     1
102
RTVSPropertyOp13
 70
     1
102
RTVSPropertyOp14
 70
     1
102
RTVSPropertyOp15
 70
     1
102
RTVSPropertyOp16
 70
     1
102
RTVSPropertyOp17
 70
     1
102
RTVSPropertyOp18
 70
     1
102
RTVSPropertyOp19
 70
     1
102
RTVSPropertyOp20
 70
     1
102
RTVSPropertyOp21
 70
     1
102
RTVSPropertyOp22
 70
     1
102
RTVSPropertyOp23
 70
     1
102
RTVSPropertyOp24
 70
     1
102
RTVSPropertyOp25
 70
     1
102
RTVSPropertyOp26
 70
     1
102
RTVSPropertyOp27
 70
     1
102
RTVSPropertyOp28
 70
     1
102
RTVSPropertyOp29
 70
     1
102
RTVSPropertyOp30
 70
     1
102
RTVSPropertyOp31
 70
     1
102
RTVSPropertyOp32
 70
     1
  0
XRECORD
  5
71C
102
{ACAD_REACTORS
330
71B
102
}
330
71B
100
AcDbXrecord
280
     1
102
RTVSPropertyOp0
 70
     1
102
RTVSPropertyOp1
 70
     1
102
RTVSPropertyOp2
 70
     1
102
RTVSPropertyOp3
 70
     1
102
RTVSPropertyOp4
 70
     1
102
RTVSPropertyOp5
 70
     1
102
RTVSPropertyOp6
 70
     1
102
RTVSPropertyOp7
 70
     1
102
RTVSPropertyOp8
 70
     1
102
RTVSPropertyOp9
 70
     1
102
RTVSPropertyOp10
 70
     1
102
RTVSPropertyOp11
 70
     1
102
RTVSPropertyOp12
 70
     1
102
RTVSPropertyOp13
 70
     1
102
RTVSPropertyOp14
 70
     1
102
RTVSPropertyOp15
 70
     1
102
RTVSPropertyOp16
 70
     1
102
RTVSPropertyOp17
 70
     1
102
RTVSPropertyOp18
 70
     1
102
RTVSPropertyOp19
 70
     1
102
RTVSPropertyOp20
 70
     1
102
RTVSPropertyOp21
 70
     1
102
RTVSPropertyOp22
 70
     1
102
RTVSPropertyOp23
 70
     1
102
RTVSPropertyOp24
 70
     1
102
RTVSPropertyOp25
 70
     1
102
RTVSPropertyOp26
 70
     1
102
RTVSPropertyOp27
 70
     1
102
RTVSPropertyOp28
 70
     1
102
RTVSPropertyOp29
 70
     1
102
RTVSPropertyOp30
 70
     1
102
RTVSPropertyOp31
 70
     1
102
RTVSPropertyOp32
 70
     1
  0
XRECORD
  5
712
102
{ACAD_REACTORS
330
711
102
}
330
711
100
AcDbXrecord
280
     1
102
RTVSPropertyOp0
 70
     1
102
RTVSPropertyOp1
 70
     1
102
RTVSPropertyOp2
 70
     1
102
RTVSPropertyOp3
 70
     1
102
RTVSPropertyOp4
 70
     1
102
RTVSPropertyOp5
 70
     1
102
RTVSPropertyOp6
 70
     1
102
RTVSPropertyOp7
 70
     1
102
RTVSPropertyOp8
 70
     1
102
RTVSPropertyOp9
 70
     1
102
RTVSPropertyOp10
 70
     1
102
RTVSPropertyOp11
 70
     1
102
RTVSPropertyOp12
 70
     1
102
RTVSPropertyOp13
 70
     1
102
RTVSPropertyOp14
 70
     1
102
RTVSPropertyOp15
 70
     1
102
RTVSPropertyOp16
 70
     1
102
RTVSPropertyOp17
 70
     1
102
RTVSPropertyOp18
 70
     1
102
RTVSPropertyOp19
 70
     1
102
RTVSPropertyOp20
 70
     1
102
RTVSPropertyOp21
 70
     1
102
RTVSPropertyOp22
 70
     1
102
RTVSPropertyOp23
 70
     1
102
RTVSPropertyOp24
 70
     1
102
RTVSPropertyOp25
 70
     1
102
RTVSPropertyOp26
 70
     1
102
RTVSPropertyOp27
 70
     1
102
RTVSPropertyOp28
 70
     1
102
RTVSPropertyOp29
 70
     1
102
RTVSPropertyOp30
 70
     1
102
RTVSPropertyOp31
 70
     1
102
RTVSPropertyOp32
 70
     1
  0
XRECORD
  5
706
102
{ACAD_REACTORS
330
705
102
}
330
705
100
AcDbXrecord
280
     1
102
RTVSPropertyOp0
 70
     1
102
RTVSPropertyOp1
 70
     1
102
RTVSPropertyOp2
 70
     1
102
RTVSPropertyOp3
 70
     1
102
RTVSPropertyOp4
 70
     1
102
RTVSPropertyOp5
 70
     1
102
RTVSPropertyOp6
 70
     1
102
RTVSPropertyOp7
 70
     1
102
RTVSPropertyOp8
 70
     1
102
RTVSPropertyOp9
 70
     1
102
RTVSPropertyOp10
 70
     1
102
RTVSPropertyOp11
 70
     1
102
RTVSPropertyOp12
 70
     1
102
RTVSPropertyOp13
 70
     1
102
RTVSPropertyOp14
 70
     1
102
RTVSPropertyOp15
 70
     1
102
RTVSPropertyOp16
 70
     1
102
RTVSPropertyOp17
 70
     1
102
RTVSPropertyOp18
 70
     1
102
RTVSPropertyOp19
 70
     1
102
RTVSPropertyOp20
 70
     1
102
RTVSPropertyOp21
 70
     1
102
RTVSPropertyOp22
 70
     1
102
RTVSPropertyOp23
 70
     1
102
RTVSPropertyOp24
 70
     1
102
RTVSPropertyOp25
 70
     1
102
RTVSPropertyOp26
 70
     1
102
RTVSPropertyOp27
 70
     1
102
RTVSPropertyOp28
 70
     1
102
RTVSPropertyOp29
 70
     1
102
RTVSPropertyOp30
 70
     1
102
RTVSPropertyOp31
 70
     1
102
RTVSPropertyOp32
 70
     1
  0
XRECORD
  5
71E
102
{ACAD_REACTORS
330
71D
102
}
330
71D
100
AcDbXrecord
280
     1
102
RTVSPropertyOp0
 70
     1
102
RTVSPropertyOp1
 70
     1
102
RTVSPropertyOp2
 70
     1
102
RTVSPropertyOp3
 70
     1
102
RTVSPropertyOp4
 70
     1
102
RTVSPropertyOp5
 70
     1
102
RTVSPropertyOp6
 70
     1
102
RTVSPropertyOp7
 70
     1
102
RTVSPropertyOp8
 70
     1
102
RTVSPropertyOp9
 70
     1
102
RTVSPropertyOp10
 70
     1
102
RTVSPropertyOp11
 70
     1
102
RTVSPropertyOp12
 70
     1
102
RTVSPropertyOp13
 70
     1
102
RTVSPropertyOp14
 70
     1
102
RTVSPropertyOp15
 70
     1
102
RTVSPropertyOp16
 70
     1
102
RTVSPropertyOp17
 70
     1
102
RTVSPropertyOp18
 70
     1
102
RTVSPropertyOp19
 70
     1
102
RTVSPropertyOp20
 70
     1
102
RTVSPropertyOp21
 70
     1
102
RTVSPropertyOp22
 70
     1
102
RTVSPropertyOp23
 70
     1
102
RTVSPropertyOp24
 70
     1
102
RTVSPropertyOp25
 70
     1
102
RTVSPropertyOp26
 70
     1
102
RTVSPropertyOp27
 70
     1
102
RTVSPropertyOp28
 70
     1
102
RTVSPropertyOp29
 70
     1
102
RTVSPropertyOp30
 70
     1
102
RTVSPropertyOp31
 70
     1
102
RTVSPropertyOp32
 70
     1
  0
ENDSEC
  0
EOF
